You are here

Bass Tabs: The Beatles "All My Loving"

Bass Tabs: The Beatles

USER-SUBMITTED TAB

Below is a user-submitted guitar tablature for the song "All My Loving" by The Beatles, one of several user-submitted tabs to be found on GuitarWorld.com.

Please note that the tablature on this page is not an official tab.  For official tabs, be sure to visit http://www.halleonard.com/

Artist: The Beatles

Song: "All My Loving”

Album: With The Beatles

 

 

Gtr I (E A D G) - 'Gtr. 1'

  Q=145(8=s8)
 4/4
  Gtr I
  W          Q  Q  Q  Q    Q  Q  Q  Q    Q  Q  Q  Q
|----------|-------------|-------------|--------------|
|----------|-4--2--1-----|-------------|--------------|
|----------|----------4--|-2--0--------|-------2------|
|----------|-------------|-------4--2--|-0--4-----4---|


  Q  Q  Q  Q    Q  Q  Q  Q    Q  Q  Q  Q    Q  Q  Q  Q
|-------------|-------------|-------------|-------------|
|-------------|----------2--|-4--4-----4--|-0--0--0--0--|
|-4--4-----4--|-0--0--4-----|-------4-----|-------------|
|-------4-----|-------------|-------------|-------------|


  Q  Q  Q  Q    Q  Q  Q  Q    Q  Q  Q  Q    Q  Q  Q  Q
|-------------|-------------|-------------|-------------|
|-------------|-4--2--1-----|-------------|-------------|
|-2--2--2--2--|----------4--|-2--0--------|-------2-----|
|-------------|-------------|-------4--2--|-0--4-----4--|


  Q  Q  Q  Q    Q  Q  Q  Q    Q  Q  Q  Q    Q  Q  Q  Q
|-------------|-------------|-------------|-------------|
|-------------|----------2--|-------4-----|-2-----------|
|-4--4-----4--|-0--0--4-----|-2--2-----2--|----4--2-----|
|-------4-----|-------------|-------------|----------4--|


  E H    Q  E   Q  Q  Q  Q    Q  Q  Q  Q    Q  Q  Q  Q
|-------------|-------------|-------------|-------------|
|-------------|-4--2--1-----|-------------|-------------|
|-------------|----------4--|-2--0--------|-------2-----|
|-0-----------|-------------|-------4--2--|-0--4-----4--|


  Q  Q  Q  Q    Q  Q  Q  Q    Q  Q  Q  Q    Q  Q  Q  Q
|-------------|-------------|-------------|-------------|
|-------------|----------2--|-4--4-----4--|-0--0--0--0--|
|-4--4-----4--|-0--0--4-----|-------4-----|-------------|
|-------4-----|-------------|-------------|-------------|


  Q  Q  Q  Q    Q  Q  Q  Q    Q  Q  Q  Q    Q  Q  Q  Q
|-------------|-------------|-------------|-------------|
|-------------|-4--2--1-----|-------------|-------------|
|-2--2--2--2--|----------4--|-2--0--------|-------2-----|
|-------------|-------------|-------4--2--|-0--4-----4--|


  Q  Q  Q  Q    Q  Q  Q  Q    Q  Q  Q  Q    Q  Q  Q  Q
|-------------|-------------|-------------|-------------|
|-------------|----------2--|-------4-----|-2-----------|
|-4--4-----4--|-0--0--4-----|-2--2-----2--|----4--2-----|
|-------4-----|-------------|-------------|----------4--|


  E H    Q  E   Q  Q  Q  Q    Q  Q  Q  Q    Q  Q  Q  Q
|-------------|-------------|-------------|-------------|
|-------------|-------------|-------------|-2--2--------|
|-------------|-4--4--------|-3--3-----3--|-------2--2--|
|-0-----------|-------4--4--|-------4-----|-------------|


  Q  Q  Q  Q    Q  Q  Q  Q    Q  Q  Q  Q    Q  Q  Q  Q
|-------------|-------------|-------------|-------------|
|-2--2-----2--|-------------|-------------|-2-----------|
|-------2-----|-4--4--------|-3--3-----3--|----4--2-----|
|-------------|-------4--4--|-------4-----|----------4--|


  E H    Q  E   Q  Q  Q  Q    Q  Q  Q  Q    Q  Q  Q  Q
|-------------|-------------|-2-----------|-------------|
|-------------|-------2--4--|----4--2-----|-2-----------|
|-------------|-0--4--------|----------4--|----4--2-----|
|-0-----------|-------------|-------------|----------4--|


  Q  Q  Q  Q    Q  Q  Q  Q    Q  Q  Q  Q    Q  Q  Q  Q
|-------------|-------------|-------------|-------------|
|-------------|-4--2--1-----|-------------|-2-----------|
|-------2--4--|----------4--|-2--0--------|----4--2-----|
|-0--4--------|-------------|-------4--2--|----------4--|


  E H    Q  E   Q  Q  Q  Q    Q  Q  Q  Q    Q  Q  Q  Q
|-------------|-------------|-------------|-------------|
|-------------|-4--2--1-----|-------------|-------------|
|-------------|----------4--|-2--0--------|-------2-----|
|-0-----------|-------------|-------4--2--|-0--4-----4--|


  Q  Q  Q  Q    Q  Q  Q  Q    Q  Q  Q  Q    Q  Q  Q  Q
|-------------|-------------|-------------|-------------|
|-------------|----------2--|-4--4-----4--|-0--0--0--0--|
|-4--4-----4--|-0--0--4-----|-------4-----|-------------|
|-------4-----|-------------|-------------|-------------|


  Q  Q  Q  Q    Q  Q  Q  Q    Q  Q  Q  Q    Q  Q  Q  Q
|-------------|-------------|-------------|-------------|
|-------------|-4--2--1-----|-------------|-------------|
|-2--2--2--2--|----------4--|-2--0--------|-------2-----|
|-------------|-------------|-------4--2--|-0--4-----4--|


  Q  Q  Q  Q    Q  Q  Q  Q    Q  Q  Q  Q    Q  Q  Q  Q
|-------------|-------------|-------------|-------------|
|-------------|----------2--|-------4-----|-2-----------|
|-4--4-----4--|-0--0--4-----|-2--2-----2--|----4--2-----|
|-------4-----|-------------|-------------|----------4--|


  E H    Q  E   Q  Q  Q  Q    Q  Q  Q  Q    Q  Q  Q  Q
|-------------|-------------|-------------|-------------|
|-------------|-------------|-------------|-2--2--------|
|-------------|-4--4--------|-3--3-----3--|-------2--2--|
|-0-----------|-------4--4--|-------4-----|-------------|


  Q  Q  Q  Q    Q  Q  Q  Q    Q  Q  Q  Q    Q  Q  Q  Q
|-------------|-------------|-------------|-------------|
|-2--2-----2--|-------------|-------------|-2--2--------|
|-------2-----|-4--4--------|-3--3-----3--|-------2--2--|
|-------------|-------4--4--|-------4-----|-------------|


  Q  Q  Q  Q    Q  Q  Q  Q    Q  Q  Q  Q    Q  Q  Q  Q
|-------------|-------------|-------------|-------------|
|-2--2-----2--|-------------|-------------|-2--2--------|
|-------2-----|-4--4--------|-4--4-----4--|-------2--2--|
|-------------|-------4--4--|-------4-----|-------------|


  Q  Q  Q  Q    Q  Q  Q  Q    Q  Q  Q  Q    Q  Q  Q  Q
|-------------|-------------|-------------|-------------|
|-2--2-----2--|-------------|-------------|-2--2--------|
|-------2-----|-4--4--------|-4--4--------|-------2--2--|
|-------------|-------4--4--|-------4--4--|-------------|


  ~~~~~~~~~~~~~~~
  W          +W
|----------|--------*|
|----------|--------*|
|----------|--------*|
|-0--------|-(0)----*|

 



When Guitar Picks Mysteriously Disappear