You are here

Bass Tabs: The Beatles "All Together Now"

Bass Tabs: The Beatles

USER-SUBMITTED TAB

Below is a user-submitted guitar tablature for the song "All Together Now" by The Beatles, one of several user-submitted tabs to be found on GuitarWorld.com.

Please note that the tablature on this page is not an official tab.

For official tabs, be sure to visit http://www.halleonard.com/

Artist: The Beatles

Song: "All Together Now”

Album: Yellow Submarine

 

 

 

Pre-Chorus (0:30)
G|----------------------------------------------------------------------|
D|----------------------------------------------------------------------|
A|-----2-3-----3--3-----5-------2-3-----3-----5-----5-----5-----5-3-2---|
E|-3-5------3--------3-----3--5------3-----3-----5-----5-----5--------5-|

Chorus (0:43)
G|-----------------------------------------------------|
D|-------5-----------5--4-2----7-------4-5-----5-2-----|
A|----5-----5-----5---------5-----5--7------5------5-2-|
E|-3-----------3---------------------------------------|

Verse (0:53)
G|----------------------------------------------------------|
D|----------------------------------------------------------|
A|----5-----5--5-----5-3-2------5----2-3-5----5-5-----------|
E|-3-----3--------5--------5-3-----3--------------3-3-3-3-5-|

Chorus (1:06)
G|------------------------------------------------------|
D|-------5------------------------------4-5-----5-2-----|
A|----5-----5-----5------2-3-5-----5--7------5------5-2-|
E|-3-----------3-----3-3--------5-----------------------|

G|-----------------------------------------------------|
D|-------5-----------5--4-2----7-------4-5-----5-2-----|
A|----5-----5-----5---------5-----5--7------5------5-2-|
E|-3-----------3---------------------------------------|

Pre-Chorus (0:30)
G|-------------------------------------------------------------------------|
D|----------2-4-5----------------------------------------------------------|
A|-3-----3---------5-------2-3--3--3-2-3-4-5-5-5---5-5-5---5-5-5-5-5-3-2---|
E|----3---------------3--5-----------------------5-------5---------------5-|

Chorus (1:34)
G|-----------------------------------------------------------------|
D|---------5-5---4-5-5-----5-5-4-2-----7-7-------4-5-5-----5-2-----|
A|-----5-5-----5-------5-5---------5-5-----5-5-7-------5-5-----5-2-|
E|-3-3-------------------------------------------------------------|

G|------------------------------------------------------------|
D|---------5-5-2-----------5-4-2--------------4-5-----5-2-----|
A|-----5-5-------5-----5-5-------5-5-----5--7------5------5-2-|
E|-3-3-------------3-3----------------5-----------------------|

G|-------------------------------------------------------------|
D|-------2-5-----5-----5-2-------------------------------------|
A|---2-5------5-----5------5-2-5-5-----5-5-----5-5-5-5-3-3-3-3-|
E|-3-------------------------------5-5-----5-5-----------------|

G|--------------------------------|
D|-----------------------2-5------|
A|-------5-------5---2-5----------|
E|-3-3-3---3-3-3---3-----------3--|

 



Keep It Dry: Graph Tech Introduces Dry and Glide Talc Formula for Musicians' Hands