You are here

Bass Tabs: The Beatles "Cry Baby Cry"

Bass Tabs: The Beatles

USER-SUBMITTED TAB

Below is a user-submitted guitar tablature for the song "Cry Baby Cry" by The Beatles, one of several user-submitted tabs to be found on GuitarWorld.com.

Please note that the tablature on this page is not an official tab. For official tabs, be sure to visit http://www.halleonard.com/

Artist: The Beatles

Song: "Cry Baby Cry"

Album: The Beatles 


 

INTRO
g-----------------------------------------------------------|
d-----------------------------------2-2-2-2-----------------|
a-----------0-0-0-0-------------------------0-0-0-0---------|
e---3-3-3-3---------1-1-1-1-3-3-3-3-----------------1-1-1-1-|

VERSE
g-----------------------------------------------------|
d---2---2---1---1---0---0-----------------------------|    play this
a---------------------------4---4---3-3-3-3-----------|        2x
e-------------------------------------------3-3-3-3---|

CHORUS
g----------------------------------------------------|
d---------------------------2-2-2-2------------------|
a---0-0-0-0-------------------------0-0-0-0----------|
e-----------1-1-1-1-3-3-3-3-----------------1-1-1-1--|

Repeat VERSE and CHORUS throughout sing until OUTRO

OUTRO CHORUSES
g-------------------------------------------------------------|
d-----------------------------------2-2-2-2-------------------|repeat until
a-----------0-0-0-0-------------------------0-0-0-0-----------|end, but last
e---3-3-3-3---------1-1-1-1-3-3-3-3-----------------1-1-1-1---|note is open E

LAST NOTE
g---------|
d---------|
a---------|
e---0~~~--|

PAUL McCARTNEY ENDING BIT
g-------------------|
d---3-------3-------|repeat however many times is needed
a-------3-------3---|       until the fade-out
e-------------------|

 



Review: Jackson Guitars Monarkh Pro Series SC and X Series SCX7