Tabs: Avenged Sevenfold "God Hates Us"

avatar

Tabs: Avenged Sevenfold "God Hates Us"

 

USER-SUBMITTED TAB

Below is a user-submitted guitar tablature for the song "God Hates Us" by Avenged Sevenfold, one of several user-submitted tabs to be found on GuitarWorld.com.

Please note that this is not an official Guitar World tab. For official tabs, visit the Hal Leonard website.

Artist: Avenged Sevenfold

Song: "Nightmare"

Album: Nightmare

Drop D

Clean 

||--5-------5-------3-------3-------1-------1-------0-------0-------|
||----6-------6-------5-------5-------3-------3-------3-------3-----|
||------7-------7-------5-------5-------2-------2-------3-------3---|
||--0-----0-------0-0-----0-------0-0-----0-------0-0-----0-------0-|
||------------------------------------------------------------------|
||------------------------------------------------------------------|

|-5-------5-------3-------3-------1-------1-------0-------0---0-1--|
|---6-------6-------5-------5-------3-------3-------3-------1------|
|-----7-------7-------5-------5-------2-------2-------3------------|
|-0-----0-------0-0-----0-------0-0-----0-------0-0-----0----------|
|------------------------------------------------------------------|
|------------------------------------------------------------------|


|--5-------5-------3-------3-------1-------1-------0-------0-------|
|----6-------6-------5-------5-------3-------3-------3-------3-----|
|------7-------7-------5-------5-------2-------2-------3-------3---|
|--0-----0-------0-0-----0-------0-0-----0-------0-0-----0-------0-|
|------------------------------------------------------------------|
|------------------------------------------------------------------|
|
|------------------------------------------------------------------|
|-10\----------13=S8======S13----8-10-8-6-------6--6s8-6-----------|
|-10\----------14=S9======S14----9-10-9-7-------7--7s9-7-7-----7/--|
|--------------------------------------------------------8-----7/--|
|------------------------------------------------------------------|
|------------------------------------------------------------------|


|-5-------5-------3-------3-------1-------1-------0-------0---0-1--|
|---6-------6-------5-------5-------3-------3-------3-------1------|
|-----7-------7-------5-------5-------2-------2-------3------------|
|-0-----0-------0-0-----0-------0-0-----0-------0-0-----0----------|
|------------------------------------------------------------------|
|------------------------------------------------------------------|
|
|------------------------------------------------------------------|
|-10\----------13=S8======S13----8-10-8-6-------6--6s8-6-----------|
|-10\----------14=S9======S14----9-10-9-7-------7--7s9-7-7---------|
|--------------------------------------------------------8-----7---|
|------------------------------------------------------------------|
|------------------------------------------------------------------|


|-------------------------------------------------------------------|
|-2-------2-------3-------3-------10-------5-------3-------3--------|
|---0-------0-------0-------0--------0-------0-------0-------0------|
|-----2-------2-------3-------3--------11\-----5-------3-------3----|
|-0-----0-------0-0-----0-------0-0--------------0-0-----0-------0--|
|-------------------------------------------------------------------|
|
|--------------------------------------------------------------------|
|---------------------------------10-------8-------6-----------------|
|-6-------6-7-9S==12--10-9-10-----10-------9-------7-----------------|
|-7-------7-------12-------------------------------------------------|
|--------------------------------------------------------------------|
|--------------------------------------------------------------------|
|
|--------------------------------------------------------------------|
|--------------------------------------------------------------------|
|--<6~----(6)-------7~------------14~------12b14r12-10~--------------|
|--------------------------------------------------------------------|
|--------------------------------------------------------------------|
|--------------------------------------------------------------------|


|---------------------------------------------------------|
|-2-------2-------3------3-------10--------13-------------|
|---0-------0-------0------0--------0---------0-----------|
|-----2-------2-------3------3--------10--------14--------|
|-0-----0-------0-0-----0------0---------0---------0------|
|---------------------------------------------------------|
|
|------------------15--13-12-13---------------------------|
|-14-----14-15-17--15-------------13-------17-------------|
|-14-----14-----------------------14-------17-------------|
|---------------------------------------------------------|
|---------------------------------------------------------|
|---------------------------------------------------------|
|							 /1\1/ ~~~~~	
|---------------------------------------------------------||--------|
|---------------------------------------------------------||--[15]~-|
|-9~------9~==s10s12s10~==========s14~====s17~------------||--[15]~-|
|---------------------------------------------------------||--------|
|---------------------------------------------------------||--------|
|---------------------------------------------------------||--------|


Riff 1 (Disto)
                                  X7 (After 4x, the 2nd guitar comes in)
||--------------------------------||-----------------------------------------|
||--------------------------------||-----------------------------------------|
||o------------------------------o||-----------------------------------------|
||o-7-------------7----5-----8---o||-7------------7---5-----8--1-1-1/-8-8-8--|
||--5-------------5----3-----6----||-5------------5---3-----6--1-1-1/-6-6-6--|
||----0-0-0-0-0-0----0---0-0------||--0-0-0-0-0-0---0---0-0----1-1-1/--------|

                                  X3 
||--------------------------------||-----------------------------------------|
||--------------------------------||-----------------------------------------|
||o------------------------------o||-----------------------------------------|
||o-7-------------7----5-----8---o||-7------------7---5-----8--1-1-1/-8-8-8--|
||--5-------------5----3-----6----||-5------------5---3-----6--1-1-1/-6-6-6--|
||----0-0-0-0-0-0----0---0-0------||--0-0-0-0-0-0---0---0-0----1-1-1/--------|

                                  X3 
||--------------------------------||-----------------------------------------|
||--------------------------------||-----------------------------------------|
||o------------------------------o||-----------------------------------------|
||o-7-------------7----5-----8---o||-7------------7---5-----8--1-1-1/-8-8-8--|
||--5-------------5----3-----6----||-5------------5---3-----6--1-1-1/-6-6-6--|
||----0-0-0-0-0-0----0---0-0------||--0-0-0-0-0-0---0---0-0----1-1-1/--------|


Riff 2 
||---------------------------------------------------------------||
||---------------------------------------------------------------||
||o----7-7-5-5s8-----10-10-10--8-7--------7-7-5-5s8-------------o||
||o-0--------------0-------------------0----------------1-1-1-1-o||
||--0--5-5-3-3s6---0--8--8--8--6-5-----0--5-5-3-3s6-----1-1-1-1--||
||--0--------------0-------------------0----------------1-1-1-1--||


Riff 3
|--------------------------------------------------------------------------------|
|--------------------------------------------------------------------------------|
|--------------------------------------------------------------------------------|
|--------------------------------------------------------------------------------|
|--------------------------------------------------------------------------------|
|-0-0-12-12-10-0-0-13-0-12-0-0-10-0-10-12-0-0-12-12-10-0-0-13-0-12-0-0-17-0-16-0-|

||-----------------------------------------------------------------------||
||-----------------------------------------------------------------------||
||o---------------------------------------------------------------------o||
||o------------------------------------------------------------3--6--9--o||
||-------------------------------------------------------------3--6--9---||
||--0-0-12-12-10-0-0-13-0-12-0-0-10-0-10-12-0-0-12-12-10-0-0-0-3--6--9---||

 
Riff 4                         
||-----------------------------||
||-----------------------------||
||o---------------------------o||
||o-0-/6-3-3s9-6--3-6-3-3s9-6-o||
||--0-/6-3-3s9-6--3-6-3-3s9-6--||
||--0-/6-3-3s9-6--3-6-3-3s9-6--||

|-------------------------------------------------------|
|-------------------------------------------------------|
|-------------------------------------------------------|
|-0---/6-----3----3s9---6------3----6--3---3s9----6-----|
|-0---/6-----3----3s9---6------3----6--3---3s9----6-----|
|-0---/6-----3----3s9---6------3----6--3---3s9----6-----|
|
|--------------------------------------------------------|
|-6----9-----6----12----9------6----9--6----12----9------|
|-8b10-11b13-8b10-14b16-11b13--8b10----8b10-14b16-11b13--|
|--------------------------------------------------------|
|--------------------------------------------------------|
|--------------------------------------------------------|


|-------------------------------------------------------|
|-------------------------------------------------------|
|-------------------------------------------------------|
|-0---/6-----3----3s9---6------3----6--3---3s9----6-----|
|-0---/6-----3----3s9---6------3----6--3---3s9----6-----|
|-0---/6-----3----3s9---6------3----6--3---3s9----6-----|
|
|---------------------------------------------------------|
|-6----9-----6----12----9------6----9--6----/12----9------|
|-8b10-11b13-8b10-14b16-11b13--8b10----8b10-/14b16-11b13--|
|---------------------------------------------------------|
|---------------------------------------------------------|
|---------------------------------------------------------|
|
|-----------------------------------------------------------------|
|-9-----13-----9-----15----13------9-----13--9-----/15----13------|
|-11b13-13b15--11b13-17b19-15b17---11b13-----11b13-/17b19--15b17--|
|-----------------------------------------------------------------|
|-----------------------------------------------------------------|
|-----------------------------------------------------------------|

Repeat Riff 2 
Riff 1
			        X3
||--------------------------------||-----------------------------------------|
||--------------------------------||-----------------------------------------|
||o------------------------------o||-----------------------------------------|
||o-7-------------7----5-----8---o||-7------------7---5-----8--1-1-1/-8-8-8--|
||--5-------------5----3-----6----||-5------------5---3-----6--1-1-1/-6-6-6--|
||----0-0-0-0-0-0----0---0-0------||--0-0-0-0-0-0---0---0-0----1-1-1/--------|

                                  X8
||--------------------------------||
||--------------------------------||
||o------------------------------o||
||o-7-------------7----5-----8---o||
||--5-------------5----3-----6----||
||----0-0-0-0-0-0----0---0-0------||

Repeat Riff 3, Riff 4,Riff 2
Breakdown  
                                              \1/~       
||---------------------------------------------------------------------------||
||---------------------------------------------------------------------------||
||--------------------------------------------[0]----------------------------||
||--------------------------------------------[0]----------------------------||
||-0-0-0-0---0-0-0---0-0-0-0---0-0-0----0-0-0------0-0-0---0-0-0-0---0-0-0---||
||-0-0-0-0---0-0-0---0-0-0-0---0-0-0----0-0-0------0-0-0---0-0-0-0---0-0-0---||

Riff 3
||--------------------------------------------------------------------------------|
||--------------------------------------------------------------------------------|
||o-------------------------------------------------------------------------------|
||o-------------------------------------------------------------------------------|
||--------------------------------------------------------------------------------|
||-0-0-12-12-10-0-0-13-0-12-0-0-10-0-10-12-0-0-12-12-10-0-0-13-0-12-0-0-17-0-[16]-|

|----------------------------------------------------------------------||
|----------------------------------------------------------------------||
|---------------------------------------------------------------------o||
|------------------------------------------------------------3--6--9--o||
|------------------------------------------------------------3--6--9---||
|---0-12-12-10-0-0-13-0-12-0-0-10-0-10-12-0-0-12-12-10-0-0-0-3--6--9---||

Repeat Riff 4 x16 (Solo)
Repeat Riff 2
Last time 
|-------------------------------------------------------------|-----|
|-------------------------------------------------------------|-----|
|----7-7-5-5s8-----10-10-10-8-7--------7-7-5-5s8--------------|-----|
|-0--------------0------------------0----------------1-1-1-1--|--0--|
|-0--5-5-3-3s6---0--8--8--8-6-5-----0--5-5-3-3s6-----1-1-1-1--|--0--|
|-0--------------0------------------0----------------1-1-1-1--|--0--|

Outro (Intro)
||---5-------5-------3-------3-------1-------1-------0-------0--------||
||-----6-------6-------5-------5-------3-------3-------3-------3------||
||o------7-------7-------5-------5-------2-------2-------3-------3---o||
||o--0-----0-------0-0-----0-------0-0-----0-------0-0-----0-------0-o||
||--------------------------------------------------------------------||
||--------------------------------------------------------------------||
||
||--------------------------------------------------------------------||
||---10\----------13=S8======S13----8-10-8-6-------6--6s8-6-----------||
||o--10\----------14=S9======S14----9-10-9-7-------7--7s9-7-7-----7/-o||
||o---------------------------------------------------------8-----7/-o|| (fade out) 
||--------------------------------------------------------------------||
||--------------------------------------------------------------------||

 

0

Comments

+ Add a Comment

Log in to Guitar World directly or log in using Facebook

Forgot your username or password?
Click here for help.

  • Sign in with Twitter
Login with Facebook
Log in using Facebook to share comments and articles easily with your Facebook feed.