You are here

Tabs: "Christmas Eve/Sarajevo 12/24" Transiberian Orchestra

Tabs:

 

 

 

 

 

 

 

 

 

E5

0 2 2 x x x 



Gtr I (E A D G B E) - 'Strings'

Gtr II (E A D G B E) - 'Flute'

Gtr III (E A D G B E) - 'Bells'

Gtr IV (E A D G B E) - 'Guitar 1'

Gtr V (E A D G B E) - 'Guitar 2'



 I

  Slowly Q=84

  N.C.

 4/4

  Gtr I

  W          W          H    Q  E E   E E E E E E E E

|----------|----------|-------------|-----------------|

|----------|----------|-------------|-----------------|

|----------|----------|-------------|---4-4-----------|

|----------|----------|-------------|-------7-5-4-----|

|----------|----------|-----------5-|-7-----------7-5-|

|----------|----------|-------------|-----------------|



 2/4       4/4

  E E E E   W          H    Q  E E   E E E E E E E E

|---------|----------|-------------|-----------------|

|---------|----------|-------------|-----------------|

|---------|-4--------|-------------|---4-4-----------|

|---4-5-7-|----------|-------------|-------7-5-4-----|

|-7-------|----------|-----------5-|-7-----------7-5-|

|---------|----------|-------------|-----------------|



                                       H.=H            Q=42H=H

  H.           E E   E E E E E E E E   H       +Q.     E   +H     H

|------------------|-----------------|-------------------|-------------||

|------------------|-----------------|-------------------|-------------||

|------------------|---4-4-----------|-------------------|-------------||

|------------------|-------7-5-4-----|-------------------|-------------||

|-7--------------5-|-7-----------7-5-|-7-------(7)-----5-|-(5)---------||

|------------------|-----------------|-------------------|-------------||

|

| Gtr II

| E  E E E E E Q     W                 E E E E  E  E E E   +H     H

|----7-7-5---------|-----------------|---7-7-5-----------|-------------||

|----------8-7-5---|-----------------|----------8--7-5---|-------------||

|------------------|-----------------|-----------------7-|-(7)---------||

|------------------|-----------------|-------------------|-------------||

|------------------|-----------------|-------------------|-------------||

|------------------|-----------------|-------------------|-------------||



 II

  Very fast Q=184

  E5

 3/4

  Gtr V


  H.            +H.            +H.            +H.

  |              |              |              |

  /              /              /              /


  Gtr IV

  PM-----------------------------------------------------|

  Q   E E E E    Q   E E E E    Q   E E E E    Q   E E E E

|-------------|--------------|--------------|--------------|

|-5---0-5-0-0-|--5---0-5-0-0-|--5---0-5-0-0-|--5---0-5-0-0-|

|-------------|--------------|--------------|--------------|

|-------------|--------------|--------------|--------------|

|-------------|--------------|--------------|--------------|

|-------------|--------------|--------------|--------------|



  E5

  +H.            +H.            +H.            +H.

   |              |              |              |

   /              /              /              /


   PM-----------------------------------------------------|

   Q   E E E E    Q   E E E E    Q   E E E E    Q   E E E E

|--------------|--------------|--------------|--------------|

|--5---0-5-0-0-|--5---0-5-0-0-|--5---0-5-0-0-|--5---0-5-0-0-|

|--------------|--------------|--------------|--------------|

|--------------|--------------|--------------|--------------|

|--------------|--------------|--------------|--------------|

|--------------|--------------|--------------|--------------|

|

| Gtr III

|  W              W              W              Q   Q   Q

|--------------|--------------|--------------|--------------|

|--------------|--------------|--------------|----------5---|

|--------------|--------------|--------------|--------------|

|--------------|--------------|--------------|--------------|

|--------------|--------------|--------------|--------------|

|--------------|--------------|--------------|--------------|



    E5

    +H.            +H.            +H.            +H.            H.

     |              |              |              |             |

     /              /              /              /             /


     PM-------------------------------------------------------------------|

     Q   E E E E    Q   E E E E    Q   E E E E    Q   E E E E   Q   E E E E

||---------------|--------------|--------------|--------------|-------------|

||o--5---0-5-0-0-|--5---0-5-0-0-|--5---0-5-0-0-|--5---0-5-0-0-|-5---0-5-0-0-|

||---------------|--------------|--------------|--------------|-------------|

||---------------|--------------|--------------|--------------|-------------|

||o--------------|--------------|--------------|--------------|-------------|

||---------------|--------------|--------------|--------------|-------------|

|

|    H       Q      H       Q      H       Q      H.            W

||-----------7---|--7-------5---|--------------|--------------|-------------|

||o--5-----------|--------------|--8-------7---|--5-----------|-------------|

||---------------|--------------|--------------|--------------|-------------|

||---------------|--------------|--------------|--------------|-------------|

||o--------------|--------------|--------------|--------------|-------------|

||---------------|--------------|--------------|--------------|-------------|

|

|   Gtr I

|    H.             H.             H.             H.            W

||---------------|--------------|--------------|--------------|-------------|

||o--------------|--------------|--------------|--------------|-------------|

||---9-----------|--7-----------|--------------|--------------|-------------|

||---------------|--------------|-10-----------|--9-----------|-------------|

||o--------------|--------------|--------------|--------------|-------------|

||---------------|--------------|--------------|--------------|-------------|



                                1.               2.

  E5

  +H.            +H.            +H.              +H.

   |              |              |                |

   /              /              /                /


   PM-------------------------------------------------------|

   Q   E E E E    Q   E E E E    Q   E E E E      Q   E E E E

|--------------|--------------|---------------||--------------||

|--5---0-5-0-0-|--5---0-5-0-0-|--5---0-5-0-0-o||--5---0-5-0-0-||

|--------------|--------------|---------------||--------------||

|--------------|--------------|---------------||--------------||

|--------------|--------------|--------------o||--------------||

|--------------|--------------|---------------||--------------||

|

|  W              W              Q   Q   Q        W

|--------------|--------------|---------------||--------------||

|--------------|--------------|----------5---o||--------------||

|--------------|--------------|---------------||--------------||

|--------------|--------------|---------------||--------------||

|--------------|--------------|--------------o||--------------||

|--------------|--------------|---------------||--------------||



 III

  N.C.

   PM---------------------------------------------------------|

   Q   E  E E E    Q   E  E E E    Q   E  E E E    Q   E  E E E

|---------------|---------------|---------------|---------------|

|--5---0--5-0-0-|--5---0--5-0-0-|--5---0--5-0-0-|--5---0--5-0-0-|

|---------------|---------------|---------------|---------------|

|---------------|---------------|---------------|---------------|

|---------------|---------------|---------------|---------------|

|---------------|---------------|---------------|---------------|

|

| Gtr V

|           ~               ~               ~               ~

|  Q   E  E Q      Q   E  E Q      Q   E  E Q      Q   E  E Q

|---------------|---------------|---------------|---------------|

|---------------|---------------|---------------|---------------|

|-12--11h12-9---|-12--11h12-9---|-12--11h12-9---|-12--11h12-9---|

|---------------|---------------|---------------|---------------|

|---------------|---------------|---------------|---------------|

|---------------|---------------|---------------|---------------|



   PM---------------------------------------------------------|

   Q   E  E E E    Q   E  E E E    Q   E  E E E    Q   E  E E E

|---------------|---------------|---------------|---------------||

|--5---0--5-0-0-|--5---0--5-0-0-|--5---0--5-0-0-|--5---0--5-0-0-||

|---------------|---------------|---------------|---------------||

|---------------|---------------|---------------|---------------||

|---------------|---------------|---------------|---------------||

|---------------|---------------|---------------|---------------||

|

|           ~               ~               ~               ~

|  Q   E  E Q      Q   E  E Q      Q   E  E Q      Q   E  E Q

|---------------|---------------|---------------|---------------||

|-12--10h12-8---|-12--10h12-8---|-12--10h12-8---|-12--10h12-8---||

|-12--11h12-9---|-12--11h12-9---|-12--11h12-9---|-12--11h12-9---||

|---------------|---------------|---------------|---------------||

|---------------|---------------|---------------|---------------||

|---------------|---------------|---------------|---------------||



 IV

   Q   E  E  E  E    Q   E  E  E  E    Q   E  E  E  E   Q  E E Q

|-12--12-12-10----|-----------------|-----------------|-----------|

|--------------13-|-12--12-12-10----|-10--10-10-12-10-|-----------|

|-----------------|--------------12-|-----------------|-9--9-9-9--|

|-----------------|-----------------|-----------------|-----------|

|-----------------|-----------------|-----------------|-----------|

|-----------------|-----------------|-----------------|-----------|



  B5

  E   E E E  E E    E   +E      +Q   Q





|----------------|----------------------|

|--------------8-|-10--(10)b12r(10)--8--|

|-------8-9-11---|----------------------|

|-9--11----------|----------------------|

|----------------|----------------------|

|----------------|----------------------|

|

| Gtr V

| H.               +H.

|----------------|----------------------|

|----------------|----------------------|

|----------------|----------------------|

|-9--------------|-(9)------------------|

|-9--------------|-(9)------------------|

|-7--------------|-(7)------------------|



  E   E E E  E E    E   +E      +Q   Q

|----------------|----------------------|

|--------------8-|-10--(10)b12r(10)--8--|

|-------8-9-11---|----------------------|

|-9--11----------|----------------------|

|----------------|----------------------|

|----------------|----------------------|

|

| H.               +H.

|----------------|----------------------|

|----------------|----------------------|

|----------------|----------------------|

|-9--------------|-(9)------------------|

|-9--------------|-(9)------------------|

|-7--------------|-(7)------------------|



  E   E E E  E E   E   E E E  E E    E   E  E  E  E  E    E  E  E  E  E  E

|----------------|----------------|-----------------15-|-18-19-20-21-22-22b23-||

|--------------8-|--------------8-|--------16-17-19--8-|-11-12-13-14-15-16----||

|-------8-9-11---|-------8-9-11---|-16--18--8--9-11----|----------------------||

|-9--11----------|-9--11----------|--9--11-------------|----------------------||

|----------------|----------------|--------------------|----------------------||

|----------------|----------------|--------------------|----------------------||

|

| W                W                 E   E  E  E  E  E    E  E  E  E  E  E

|----------------|----------------|--------------------|-18-19-20-21-22-23----||

|----------------|----------------|-----------17-19-20-|----------------------||

|----------------|----------------|-16--18-20----------|----------------------||

|----------------|----------------|--------------------|----------------------||

|----------------|----------------|--------------------|----------------------||

|----------------|----------------|--------------------|----------------------||

|

| Gtr V

| H.               H.                H.                   Q     Q     Q

|----------------|----------------|--------------------|----------------------||

|----------------|----------------|--------------------|----------------------||

|----------------|----------------|--------------------|----------------------||

|-9--------------|-9--------------|--9-----------------|--9-----9-----9-------||

|-9--------------|-9--------------|--9-----------------|--9-----9-----9-------||

|-7--------------|-7--------------|--7-----------------|--7-----7-----7-------||



 V

  N.C.

   ~~~~~

   H       Q    W        W        Q  Q  Q    Q  Q   Q     Q  Q  Q

|-22b24-------|--------|--------|----------|-----------|-----------|

|-17----------|--------|--------|----------|-----------|-----------|

|-------------|--------|--------|-------9--|-9--7------|-----------|

|-------------|--------|--------|----------|-------10--|-10--9--7--|

|-------------|--------|--------|----------|-----------|-----------|

|-------------|--------|--------|----------|-----------|-----------|



  Q  Q   Q     Q  Q  Q    H.        W        W        Q  Q   Q




|-----------|-----------|---------|--------|--------|-----------|

|-----------|-----------|---------|--------|--------|-----------|

|-----------|-----------|---------|--------|--------|--------9--|

|-9--7------|-----------|---------|--------|--------|-----------|

|-------10--|-10--9--7--|-7-------|--------|--------|-----------|

|-----------|-----------|---------|--------|--------|-----------|

|

| Gtr I

| W            W          W         W        W        Q  Q   Q

|-----------|-----------|---------|--------|--------|-------12--|

|-----------|-----------|---------|--------|--------|-----------|

|-----------|-----------|---------|--------|--------|--------9--|

|-----------|-----------|---------|--------|--------|-----------|

|-----------|-----------|---------|--------|--------|--------7--|

|-----------|-----------|---------|--------|--------|-----------|



   Q   Q   Q     Q   Q   Q     Q   Q   Q     Q  Q  Q

|-------------|-------------|-------------|-----------||

|-------------|-------------|-------------|-----------||

|--9---7------|-------------|-------------|-----------||

|---------10--|-10---9---7--|--9---7------|-----------||

|-------------|-------------|---------10--|-10--9--7--||

|-------------|-------------|-------------|-----------||

|

|  Q   Q   Q     Q   Q   Q     Q   Q   Q     Q  Q  Q

|-12--10------|-------------|-------------|-----------||

|---------13--|-13--12--10--|-12--10---8--|--8--7-----||

|--9---7------|-------------|-------------|--------9--||

|---------10--|-10---9---7--|--9---7---5--|--5--4-----||

|--7---5------|-------------|-------------|--------7--||

|----------8--|--8---7---5--|--7---5---3--|--3--2--0--||



 VI

  E5

  PM-----------------------------------------

  Q   E E E E    Q   E E E E    Q   E E E E

|-------------|--------------|--------------|

|-5---0-5-0-0-|--5---0-5-0-0-|--5---0-5-0-0-|

|-------------|--------------|--------------|

|-------------|--------------|--------------|

|-------------|--------------|--------------|

|-------------|--------------|--------------|

|

| Gtr V

| H.            +H.            +H.

|-------------|--------------|--------------|

|-------------|--------------|--------------|

|-------------|--------------|--------------|

|-2-----------|-(2)----------|-(2)----------|

|-2-----------|-(2)----------|-(2)----------|

|-0-----------|-(0)----------|-(0)----------|



 ------------------------------------------|

   Q   E E E E    Q   E E E E    Q   E E E E

|--------------|--------------|--------------|

|--5---0-5-0-0-|--5---0-5-0-0-|--5---0-5-0-0-|

|--------------|--------------|--------------|

|--------------|--------------|--------------|

|--------------|--------------|--------------|

|--------------|--------------|--------------|

|

| +H.            +H.            +H.

|--------------|--------------|--------------|

|--------------|--------------|--------------|

|--------------|--------------|--------------|

|-(2)----------|-(2)----------|-(2)----------|

|-(2)----------|-(2)----------|-(2)----------|

|-(0)----------|-(0)----------|-(0)----------|



   PM-----------------------------------------

   Q   E E E E    Q   E E E E    Q   E E E E


|--------------|--------------|--------------|

|--5---0-5-0-0-|--5---0-5-0-0-|--5---0-5-0-0-|

|--------------|--------------|--------------|

|--------------|--------------|--------------|

|--------------|--------------|--------------|

|--------------|--------------|--------------|

|

| +H.            +H.            +H.

|--------------|--------------|--------------|

|--------------|--------------|--------------|

|--------------|--------------|--------------|

|-(2)----------|-(2)----------|-(2)----------|

|-(2)----------|-(2)----------|-(2)----------|

|-(0)----------|-(0)----------|-(0)----------|



 ------------------------------------------|

   Q   E E E E    Q   E E E E    Q   E E E E

|--------------|--------------|--------------|

|--5---0-5-0-0-|--5---0-5-0-0-|--5---0-5-0-0-|

|--------------|--------------|--------------|

|--------------|--------------|--------------|

|--------------|--------------|--------------|

|--------------|--------------|--------------|

|

|  >

| +H.            +H.            +H.

|--------------|--------------|--------------|

|--------------|--------------|--------------|

|--------------|--------------|--------------|

|-(2)----------|-(2)----------|-(2)----------|

|-(2)----------|-(2)----------|-(2)----------|

|-(0)----------|-(0)----------|-(0)----------|



  N.C.

   PM-----------------------------------------

   Q   E E E E    Q   E E E E    Q   E E E E

|--------------|--------------|--------------|

|--5---0-5-0-0-|--5---0-5-0-0-|--5---0-5-0-0-|

|--------------|--------------|--------------|

|--------------|--------------|--------------|

|--------------|--------------|--------------|

|--------------|--------------|--------------|

|

| Gtr III

|  H.             H.             H.

|-12-----------|-10-----------|--------------|

|--------------|--------------|-13-----------|

|--9-----------|--7-----------|--------------|

|--------------|--------------|-10-----------|

|--------------|--------------|--------------|

|--------------|--------------|--------------|



                 C             Bm

 ----------------------------------------|

   Q   E E E E   Q   E E E E   Q   E E E E

|--------------|-------------|-------------|

|--5---0-5-0-0-|-5---0-5-0-0-|-5---0-5-0-0-|

|--------------|-------------|-------------|

|--------------|-------------|-------------|

|--------------|-------------|-------------|

|--------------|-------------|-------------|

|

|                Gtr I

|  H.            H.            H.

|--------------|-------------|-------------|

|-12-----------|-5-----------|-------------|

|--------------|-5-----------|-7-----------|

|--9-----------|-------------|-9-----------|

|--------------|-------------|-------------|

|--------------|-------------|-------------|




  Am            E5            N.C.

  PM---------------------------------------

  Q   E E E E   Q   E E E E   Q   E E E E

|-------------|-------------|-------------|

|-5---0-5-0-0-|-5---0-5-0-0-|-5---0-5-0-0-|

|-------------|-------------|-------------|

|-------------|-------------|-------------|

|-------------|-------------|-------------|

|-------------|-------------|-------------|

|

| H.            H.            H.

|-------------|-------------|-------------|

|-------------|-------------|-------------|

|-5-----------|-4-----------|-2-----------|

|-7-----------|-2-----------|-------------|

|-------------|-------------|-0-----------|

|-------------|-------------|-------------|



 ---------------------------------------|

  Q   E E E E   Q   E E E E   Q   E E E E

|-------------|-------------|-------------|

|-5---0-5-0-0-|-5---0-5-0-0-|-5---0-5-0-0-|

|-------------|-------------|-------------|

|-------------|-------------|-------------|

|-------------|-------------|-------------|

|-------------|-------------|-------------|

|

| H.            H.            H.

|-------------|-------------|-------------|

|-------------|-------------|-------------|

|-4-----------|-2-----------|-4-----------|

|-------------|-------------|-------------|

|-2-----------|-0-----------|-2-----------|

|-------------|-------------|-------------|



  PM---------------------------------------

  Q   E E E E   Q   E E E E   Q   E E E E

|-------------|-------------|-------------|

|-5---0-5-0-0-|-5---0-5-0-0-|-5---0-5-0-0-|

|-------------|-------------|-------------|

|-------------|-------------|-------------|

|-------------|-------------|-------------|

|-------------|-------------|-------------|

|

| H.            H.            H.

|-------------|-------------|-------------|

|-------------|-------------|-------------|

|-2-----------|-4-----------|-2-----------|

|-------------|-------------|-------------|

|-0-----------|-2-----------|-0-----------|

|-------------|-------------|-------------|



                VII

 --------------------------------------|

  Q   E E E E    Q  E E E E   Q  E E E E

|-------------||------------|------------|

|-5---0-5-0-0-||-5--0-5-0-0-|-5--0-5-0-0-|

|-------------||------------|------------|

|-------------||------------|------------|

|-------------||------------|------------|

|-------------||------------|------------|

|

| H.             W            W

|-------------||------------|------------|

|-------------||------------|------------|

|-4-----------||------------|------------|

|-------------||------------|------------|

|-2-----------||------------|------------|

|-------------||------------|------------|





  PM------------------------------------------------------------------------|

  Q  E E E E   Q  E E E E   Q  E E E E   Q  E E E E   Q  E E E E   Q  E E E E

|------------|------------|------------|------------|------------|------------||

|-5--0-5-0-0-|-5--0-5-0-0-|-5--0-5-0-0-|-5--0-5-0-0-|-5--0-5-0-0-|-5--0-5-0-0-||

|------------|------------|------------|------------|------------|------------||

|------------|------------|------------|------------|------------|------------||

|------------|------------|------------|------------|------------|------------||

|------------|------------|------------|------------|------------|------------||



 VIII

  PM---------------------------------------

  Q   E E E E   Q   E E E E   Q   E E E E

|-------------|-------------|-------------|

|-5---0-5-0-0-|-5---0-5-0-0-|-5---0-5-0-0-|

|-------------|-------------|-------------|

|-------------|-------------|-------------|

|-------------|-------------|-------------|

|-------------|-------------|-------------|

|

| Gtr V

| W             W             W

|-------------|-------------|-------------|

|-------------|-------------|-------------|

|-------------|-------------|-------------|

|-------------|-------------|-------------|

|-------------|-------------|-------------|

|-------------|-------------|-------------|

|

| Gtr I

| H.            H.            H.

|-------------|-------------|-------------|

|-------------|-------------|-------------|

|-------------|-------------|-------------|

|-2-----------|-0-----------|-------------|

|-------------|-------------|-3-----------|

|-------------|-------------|-------------|



                C/E            Em7

 -----------------------------------------|

  Q   E E E E    Q   E E E E    Q   E E E E

|-------------|--------------|--------------|

|-5---0-5-0-0-|--5---0-5-0-0-|--5---0-5-0-0-|

|-------------|--------------|--------------|

|-------------|--------------|--------------|

|-------------|--------------|--------------|

|-------------|--------------|--------------|

|

| W              H.             H.

|-------------|--------------|--------------|

|-------------|-17-----------|-15-----------|

|-------------|--------------|--------------|

|-------------|--------------|--------------|

|-------------|--------------|--------------|

|-------------|--------------|--------------|

|

| H.             H.             H.

|-------------|--------------|--------------|

|-------------|--5-----------|--3-----------|

|-------------|--5-----------|--4-----------|

|-------------|--2-----------|--0-----------|

|-2-----------|--------------|--------------|

|-------------|--------------|--------------|



  Am7/E            E5             C/E

   PM-------------------------------------------

   Q     E E E E    Q   E E E E    Q   E E E E








|----------------|--------------|--------------|

|--5-----0-5-0-0-|--5---0-5-0-0-|--5---0-5-0-0-|

|----------------|--------------|--------------|

|----------------|--------------|--------------|

|----------------|--------------|--------------|

|----------------|--------------|--------------|

|

|                   ~~~

|  H.               H.             H.

|----------------|--------------|--------------|

|----------------|--------------|-17-----------|

|-16b17r=========|=16-----------|--------------|

|----------------|--------------|--------------|

|----------------|--------------|--------------|

|----------------|--------------|--------------|

|

|  H.               H.             H.

|----------------|--------------|--------------|

|--1-------------|--------------|--5-----------|

|--2-------------|--4-----------|--5-----------|

|----------------|--2-----------|--2-----------|

|--3-------------|--2-----------|--------------|

|----------------|--------------|--------------|



  Em7            Am7/E            E5

 --------------------------------------------|

   Q   E E E E    Q     E E E E    Q   E E E E

|--------------|----------------|--------------|

|--5---0-5-0-0-|--5-----0-5-0-0-|--5---0-5-0-0-|

|--------------|----------------|--------------|

|--------------|----------------|--------------|

|--------------|----------------|--------------|

|--------------|----------------|--------------|

|

|                                  ~~~

|  H.             H.               H.

|--------------|----------------|--------------|

|-15-----------|----------------|--------------|

|--------------|-16b17r=========|=16-----------|

|--------------|----------------|--------------|

|--------------|----------------|--------------|

|--------------|----------------|--------------|

|

|  H.             H.               H.

|--------------|----------------|--------------|

|--3-----------|--1-------------|--------------|

|--4-----------|--2-------------|--4-----------|

|--0-----------|----------------|--2-----------|

|--------------|--3-------------|--2-----------|

|--------------|----------------|--------------|



  C/E            Em7            Am7/E

   PM-------------------------------------------

   Q   E E E E    Q   E E E E    Q     E E E E

|--------------|--------------|----------------|

|--5---0-5-0-0-|--5---0-5-0-0-|--5-----0-5-0-0-|

|--------------|--------------|----------------|

|--------------|--------------|----------------|

|--------------|--------------|----------------|

|--------------|--------------|----------------|

|

|  H.             H.             H.

|--------------|--------------|----------------|

|-17-----------|-15-----------|----------------|

|--------------|--------------|-16b17r=========|

|--------------|--------------|----------------|

|--------------|--------------|----------------|

|--------------|--------------|----------------|

|

|  H.             H.             H.





|--------------|--------------|----------------|

|--5-----------|--3-----------|--1-------------|

|--5-----------|--4-----------|--2-------------|

|--2-----------|--0-----------|----------------|

|--------------|--------------|--3-------------|

|--------------|--------------|----------------|



                 VIIII

  E5              N.C.

 ------------|

   Q   E E E E     W                 W

|--------------||-----------------|-----------------|

|--5---0-5-0-0-||-----------------|-----------------|

|--------------||-----------------|-----------------|

|--------------||-----------------|-----------------|

|--------------||-----------------|-----------------|

|--------------||-----------------|-----------------|

|

|  ~~~

|  H.              Q   E  E  E  E    Q   E  E  E  E

|--------------||-12--12-12-10----|-----------------|

|--------------||--------------13-|-12--12-12-10----|

|-16-----------||-----------------|--------------12-|

|--------------||-----------------|-----------------|

|--------------||-----------------|-----------------|

|--------------||-----------------|-----------------|

|

|  H.              W                 W

|--------------||-----------------|-----------------|

|--------------||-----------------|-----------------|

|--4-----------||-----------------|-----------------|

|--2-----------||-----------------|-----------------|

|--2-----------||-----------------|-----------------|

|--------------||-----------------|-----------------|



                                B5

   Q   E  E  E  E   Q  E E Q    E   E E E  E E

|-----------------|-----------|----------------|

|-10--10-10-12-10-|-----------|--------------8-|

|-----------------|-9--9-9-9--|-------8-9-11---|

|-----------------|-----------|-9--11----------|

|-----------------|-----------|----------------|

|-----------------|-----------|----------------|

|

| Gtr V

|  W                W           H.

|-----------------|-----------|----------------|

|-----------------|-----------|----------------|

|-----------------|-----------|----------------|

|-----------------|-----------|-9--------------|

|-----------------|-----------|-9--------------|

|-----------------|-----------|-7--------------|



   E   +E      +Q   Q     E   E  E  E  E  E    E   +E      +Q    Q

|----------------------|-----------------15-|-17--(17)b19r(17)--15--|

|-10--(10)b12r(10)--8--|--------16-17-19--8-|-10--(10)b12r(10)---8--|

|----------------------|-16--18--8--9-11----|-----------------------|

|----------------------|--9--11-------------|-----------------------|

|----------------------|--------------------|-----------------------|

|----------------------|--------------------|-----------------------|

|

| +H.                     H.                  +H.

|----------------------|--------------------|-----------------------|

|----------------------|--------------------|-----------------------|

|----------------------|--------------------|-----------------------|

|-(9)------------------|--9-----------------|-(9)-------------------|

|-(9)------------------|--9-----------------|-(9)-------------------|

|-(7)------------------|--7-----------------|-(7)-------------------|



  N.C.

                         ~~~~~~~~~~


  W            Q   E  E  Q     +H       Q

|-----------|-15--14h15-----|--------------|

|-----------|-----------17--|-(17)---------|

|-----------|---------------|--------------|

|-----------|---------------|--------------|

|-----------|---------------|--------------|

|-----------|---------------|--------------|

|

| Gtr I

| Q  E E Q     Q   E  E  Q      Q   E E Q

|-----------|---------------|--------------|

|-8--7-8----|--8---7--8-----|---8---7-8----|

|--------9--|------------9--|-----------9--|

|-5--4-5----|--5---4--5-----|---5---4-5----|

|--------7--|------------7--|-----------7--|

|-----------|---------------|--------------|



                        ~~~~~~~~~~~~~~~~~

   H            E  E    H.            H.

|-17b19--------17p15-|-------------|---------------|

|--------------------|-17----------|-20------------|

|--------------------|-------------|---------------|

|--------------------|-------------|---------------|

|--------------------|-------------|---------------|

|--------------------|-------------|---------------|

|

|  Q     E E Q          Q   E E Q     Q   E E Q

|--------------------|-------------|---------------|

|--8-----7-8---------|--8---7-8----|--8---7-8------|

|------------9-------|----------9--|----------9----|

|--5-----4-5---------|--5---4-5----|--5---4-5------|

|------------7-------|----------7--|----------7----|

|--------------------|-------------|---------------|



                          X

   ~~~~~~~~~~~~~~~~

   H.         H.            Q   E  E  E  E

|-22-------|-22b24------||-12--12-12-10----|

|----------|------------||--------------13-|

|----------|------------||-----------------|

|----------|------------||-----------------|

|----------|------------||-----------------|

|----------|------------||-----------------|



   Q   E  E  E  E    Q   E  E  E  E   Q  E E Q

|-----------------|-----------------|-----------|

|-12--12-12-10----|-10--10-10-12-10-|-----------|

|--------------12-|-----------------|-9--9-9-9--|

|-----------------|-----------------|-----------|

|-----------------|-----------------|-----------|

|-----------------|-----------------|-----------|



  B5

  E   E E E  E E    E   +E      +Q   Q    E   E E E  E E

|----------------|----------------------|----------------|

|--------------8-|-10--(10)b12r(10)--8--|--------------8-|

|-------8-9-11---|----------------------|-------8-9-11---|

|-9--11----------|----------------------|-9--11----------|

|----------------|----------------------|----------------|

|----------------|----------------------|----------------|

|

| Gtr V

| H.               +H.                    H.

|----------------|----------------------|----------------|

|----------------|----------------------|----------------|

|----------------|----------------------|----------------|

|-9--------------|-(9)------------------|-9--------------|

|-9--------------|-(9)------------------|-9--------------|

|-7--------------|-(7)------------------|-7--------------|




   E   +E      +Q   Q    E   E E E  E E   E   E E E  E E

|----------------------|----------------|----------------|

|-10--(10)b12r(10)--8--|--------------8-|--------------8-|

|----------------------|-------8-9-11---|-------8-9-11---|

|----------------------|-9--11----------|-9--11----------|

|----------------------|----------------|----------------|

|----------------------|----------------|----------------|

|

| +H.                    H.               H.

|----------------------|----------------|----------------|

|----------------------|----------------|----------------|

|----------------------|----------------|----------------|

|-(9)------------------|-9--------------|-9--------------|

|-(9)------------------|-9--------------|-9--------------|

|-(7)------------------|-7--------------|-7--------------|



                                              XI

                                               Em     N.C.

                                                ~~~~~~~~~~~~~~

   E   E  E  E  E  E    E  E  E  E  E  E        H.

|-----------------15-|-18-19-20-21-22-22b23-||-22b24---------|

|--------16-17-19--8-|-11-12-13-14-15-16----||---------------|

|-16--18--8--9-11----|----------------------||---------------|

|--9--11-------------|----------------------||---------------|

|--------------------|----------------------||---------------|

|--------------------|----------------------||---------------|

|

|  H.                   Q     Q     Q           W

|--------------------|----------------------||---------------|

|--------------------|----------------------||---------------|

|--------------------|----------------------||---------------|

|--9-----------------|--9-----9-----9-------||---------------|

|--9-----------------|--9-----9-----9-------||---------------|

|--7-----------------|--7-----7-----7-------||---------------|

|

| Gtr I

|  W                    W                       Q     E E Q

|--------------------|----------------------||-12------------|

|--------------------|----------------------||--8-----7-8----|

|--------------------|----------------------||--9---------9--|

|--------------------|----------------------||--------4-5----|

|--------------------|----------------------||------------7--|

|--------------------|----------------------||---------------|



 ~~~~~~~~~~~~~~~~~~~~~~~~~~~~~~~~~~~~~~~

   H.              H.              H.

|-22b24---------|-22b24---------|-22b24---------|

|---------------|---------------|---------------|

|---------------|---------------|---------------|

|---------------|---------------|---------------|

|---------------|---------------|---------------|

|---------------|---------------|---------------|

|

|  W               W               W

|---------------|---------------|---------------|

|---------------|---------------|---------------|

|---------------|---------------|---------------|

|---------------|---------------|---------------|

|---------------|---------------|---------------|

|---------------|---------------|---------------|

|

|  Q     E E Q     Q     E E Q     Q     E E Q

|---------------|---------------|---------------|

|--8-----7-8----|--8-----7-8----|--8-----7-8----|

|------------9--|------------9--|------------9--|

|--5-----4-5----|--5-----4-5----|--5-----4-5----|

|------------7--|------------7--|------------7--|

|---------------|---------------|---------------|



  G      F#G/Em/G  G      F#G/Em/G  G      F#G/Em/G  G      F#G/Em/G

   ~~~~~~~~~~~~~~~~~~~~~~~~~~~~~~~~~~~~~~~~~~~~~~~~~~~~~~~~

   H.               H.               H.               H.


|-22b24----------|-22b24----------|-22b24----------|-22b24----------|

|----------------|----------------|----------------|----------------|

|----------------|----------------|----------------|----------------|

|----------------|----------------|----------------|----------------|

|----------------|----------------|----------------|----------------|

|----------------|----------------|----------------|----------------|

|

| Gtr I

|  Q     E E  Q     Q     E E  Q     Q     E E  Q     Q     E E  Q

|--7-----5-7-----|--7-----5-7-----|--7-----5-7-----|--7-----5-7-----|

|--8-----7-8--8--|--8-----7-8--8--|--8-----7-8--8--|--8-----7-8--8--|

|-------------9--|-------------9--|-------------9--|-------------9--|

|--5-----7-9-----|--5-----7-9-----|--5-----7-9-----|--5-----7-9-----|

|------------10--|------------10--|------------10--|------------10--|

|----------------|----------------|----------------|----------------|



  N.C.

  Gtr IV

   S  S  S  S  S  S  S  S  S  S  S  S    S  S  S  S  S  S  S  S  S  S  S  S

|-19p17p15----------------------------|----------------------------15h17h19-|

|----------19p17p15-------------------|-------------------15h17h19----------|

|-------------------17p16p14----------|----------14h16h17-------------------|

|----------------------------17p16p14-|-14h16h17----------------------------|

|-------------------------------------|-------------------------------------|

|-------------------------------------|-------------------------------------|

|

| Gtr V

|  S  S  S  S  S  S  S  S  S  S  S  S    S  S  S  S  S  S  S  S  S  S  S  S

|-15p14p12----------------------------|----------------------------12h14h15-|

|----------15p13p12-------------------|-------------------12h13h15----------|

|-------------------14p12p11----------|----------11h12h14-------------------|

|----------------------------14p12p10-|-10h12h14----------------------------|

|-------------------------------------|-------------------------------------|

|-------------------------------------|-------------------------------------|

|

| Gtr I

|  Q           E     E     Q             Q           E     E     Q

|-12----------------------------------|-12----------------------------------|

|-------------------------------------|-------------------------------------|

|-12----------11----12-----9----------|-12----------11----12-----9----------|

|-------------------------------------|-------------------------------------|

|-------------------------------------|-------------------------------------|

|-------------------------------------|-------------------------------------|



   S  S  S  S  S  S  S  S  S  S  S  S    S  S  S  S  S  S  S  S  S  S  S  S

|-19p17p15----------------------------|----------------------------15h17h19----|

|----------19p17p15-------------------|-------------------15h17h19-------------|

|-------------------17p16p14----------|----------14h16h17----------------------|

|----------------------------17p16p14-|-14h16h17-------------------------------|

|-------------------------------------|----------------------------------------|

|-------------------------------------|----------------------------------------|

|

|  S  S  S  S  S  S  S  S  S  S  S  S    S  S  S  S  S  S  S  S  S  S  S  S

|-15p14p12----------------------------|----------------------------12h14h15----|

|----------15p13p12-------------------|-------------------12h13h15-------------|

|-------------------14p12p11----------|----------11h12h14----------------------|

|----------------------------14p12p10-|-10h12h14-------------------------------|

|-------------------------------------|----------------------------------------|

|-------------------------------------|----------------------------------------|

|

|  Q           E     E     Q             Q           E     E     Q

|-12----------------------------------|-12-------------------------------------|

|-------------------------------------|----------------------------------------|

|-12----------11----12-----9----------|-12----------11----12-----9-------------|

|-------------------------------------|----------------------------------------|

|-------------------------------------|----------------------------------------|

|-------------------------------------|----------------------------------------|



   S  S  S  S  S  S  S  S  S  S  S  S    S  S  S  S  S  S  S  S  S  S  S  S





|-19p17p15----------------------------|----------------------------15h17h19-|

|----------19p17p15-------------------|-------------------15h17h19----------|

|-------------------17p16p14----------|----------14h16h17-------------------|

|----------------------------17p16p14-|-14h16h17----------------------------|

|-------------------------------------|-------------------------------------|

|-------------------------------------|-------------------------------------|

|

|  S  S  S  S  S  S  S  S  S  S  S  S    S  S  S  S  S  S  S  S  S  S  S  S

|-15p14p12----------------------------|----------------------------12h14h15-|

|----------15p13p12-------------------|-------------------12h13h15----------|

|-------------------14p12p11----------|----------11h12h14-------------------|

|----------------------------14p12p10-|-10h12h14----------------------------|

|-------------------------------------|-------------------------------------|

|-------------------------------------|-------------------------------------|

|

|  Q           E     E     E     E       Q           E     E     E     E

|-12----------12----12----12----12----|-12----------12----12----12----12----|

|-------------------------------------|-------------------------------------|

|--9-----------9-----9-----9-----9----|--9-----------9-----9-----9-----9----|

|-------------------------------------|-------------------------------------|

|-------------------------------------|-------------------------------------|

|--0----------------------------------|--0----------------------------------|



   S  S  S  S  S  S  S  S  S  S  S  S    S  S  S  S  S  S  S  S  S  S  S  S

|-19p17p15----------------------------|----------------------------15h17h19----|

|----------19p17p15-------------------|-------------------15h17h19-------------|

|-------------------17p16p14----------|----------14h16h17----------------------|

|----------------------------17p16p14-|-14h16h17-------------------------------|

|-------------------------------------|----------------------------------------|

|-------------------------------------|----------------------------------------|

|

|  S  S  S  S  S  S  S  S  S  S  S  S    S  S  S  S  S  S  S  S  S  S  S  S

|-15p14p12----------------------------|----------------------------12h14h15----|

|----------15p13p12-------------------|-------------------12h13h15-------------|

|-------------------14p12p11----------|----------11h12h14----------------------|

|----------------------------14p12p10-|-10h12h14-------------------------------|

|-------------------------------------|----------------------------------------|

|-------------------------------------|----------------------------------------|

|

|  Q           E     E     E     E       Q           E     E     E     E

|-12----------12----12----12----12----|-12----------12----12----12----12-------|

|-------------------------------------|----------------------------------------|

|--9-----------9-----9-----9-----9----|--9-----------9-----9-----9-----9-------|

|-------------------------------------|----------------------------------------|

|-------------------------------------|----------------------------------------|

|--0----------------------------------|--0-------------------------------------|



   H     Q     H     Q     H     Q     H     Q

|-15--------|-17--------|-19--------|-22--------|

|-----------|-----------|-----------|-----------|

|-----------|-----------|-----------|-----------|

|-----------|-----------|-----------|-----------|

|-----------|-----------|-----------|-----------|

|-----------|-----------|-----------|-----------|

|

|  H     Q     H     Q     H     Q     H     Q

|-12--------|-14--------|-15--------|-19--------|

|-----------|-----------|-----------|-----------|

|-----------|-----------|-----------|-----------|

|-----------|-----------|-----------|-----------|

|-----------|-----------|-----------|-----------|

|-----------|-----------|-----------|-----------|

|

|  Q  Q  Q     Q  Q  Q     Q  Q  Q     Q  Q  Q

|-12--------|-12--------|-12--------|-12--------|

|-----------|-----------|-----------|-----------|

|--9--------|--9--------|--9--------|--9--------|

|-----------|-----------|-----------|-----------|

|-----------|-----------|-----------|-----------|

|-----------|-----------|-----------|-----------|



  E5                                                 Em


                                                      ~~~~~

   H.            +H.         +H.         +H.          Q     Q   Q

|-22b24=======|=(22)------|-(22)------|-(22)r------|-22b24-----------|

|-------------|-----------|-----------|------------|-----------------|

|-------------|-----------|-----------|------------|-----------------|

|-------------|-----------|-----------|------------|-----------------|

|-------------|-----------|-----------|------------|-----------------|

|-------------|-----------|-----------|------------|-----------------|

|

|                                                     PM----------|

|  W              W           W           W           Q     E E E E

|-------------|-----------|-----------|------------|-----------------|

|-------------|-----------|-----------|------------|--5-----0-5-0-0--|

|-------------|-----------|-----------|------------|-----------------|

|-------------|-----------|-----------|------------|-----------------|

|-------------|-----------|-----------|------------|-----------------|

|-------------|-----------|-----------|------------|-----------------|

|

|  H.            +H.         +H.         +H.          Q     Q   Q

|-12----------|-(12)------|-(12)------|-(12)-------|-12--------------|

|-12----------|-(12)------|-(12)------|-(12)-------|-12--------------|

|--9----------|--(9)------|--(9)------|--(9)-------|-12--------------|

|-------------|-----------|-----------|------------|-14--------------|

|-------------|-----------|-----------|------------|-----------------|

|-------------|-----------|-----------|------------|-----------------|



  N.C.

  Gtr V

  PM----------------------------------------------|

  Q  E E E E   Q  E E E E   Q  E E E E   Q  E E E E

|------------|------------|------------|------------*|

|-5--0-5-0-0-|-5--0-5-0-0-|-5--0-5-0-0-|-5--0-5-0-0-*|

|------------|------------|------------|------------*|

|------------|------------|------------|------------*|

|------------|------------|------------|------------*|

|------------|------------|------------|------------*|



Tom Petty and the Heartbreakers Announce 40th Anniversary 2017 Tour