You are here

Tabs: The Foo Fighters "All My Life"

Tabs: The Foo Fighters

USER-SUBMITTED TAB

Below is a user-submitted guitar tablature for the song "All My Life" by Foo Fighters, one of several user-submitted tabs to be found on GuitarWorld.com.

Please note that the tablature on this page is not an official tab.

For official tabs, be sure to visit alfred.com.

Artist: Foo Fighters

Song: "All My Life"

Album: One by One

 

Intro

(One Guitar)


e|-----------------|----------------|

B|-----------------|----------------|

G|-----------------|----------------|

D|-----------------|----------------|

A|-555-555-555-555-|555-555-555-555-| x5

E|-333-333-333-333-|333-333-333-333-|


Main Riff

(Two Guitars)


Guitar 1:

(Distortion)

    

e|------------------|----------------|

B|------------------|----------------|\

G|------------------|----------------| \

D|------------------|----------------|  \

A|-555-55--55-557-7-|55-55--55-558-8-|   \

E|-333033-033-335-5-|33033-033-336-6-|    \

                                           \

                                            \_____x2

Guitar 2:                                   /

(Distortion)                               /

                                          /

e|------------------|----------------|   /

B|------------------|----------------|  /

G|-333333-333-335-5-|33333-333-336-6-| /

D|------------------|----------------|/

A|-111111-111-113-3-|11111-111-114-4-|

E|------------------|----------------|


Verse

(Two Guitars)


Guitar 1 (Palm-Muted):


e|-------------------------------|-------------------------------|

B|-------------------------------|-------------------------------|

G|-------------------------------|-------------------------------|

D|-------------------------------|-------------------------------|

A|-5-5-555-5---5-5-555-5---7---7-|-5-5-555-5---5-5-555-5---8---8-|

E|-3-3-333-3---3-3-333-3---5---5-|-3-3-333-3---3-3-333-3---6---6-|



Guitar 2 (Distortion):


e|-------------------------------|-------------------------------|

B|-------------------------------|-------------------------------|

G|---3-----3-----3-----3---5---5-|---3-----3-----3-----3---6---6-|

D|-------------------------------|-------------------------------|

A|-------------------------------|-------------------------------|

E|-------------------------------|-------------------------------|


Chorus

(Two Guitars)


Guitar 1 (Distortion):

 

e|-3-3-3333-33-333-3-3-3333-33-333-|-3-3-3333-33-333---------|

B|-3-3-3333-33-333-3-3-3333-33-333-|-3-3-3333-33-333---------|

G|-0-0-0000-00-000-0-0-0000-00-000-|-0-0-0000-00-000-3-3-333-|\

D|-0-0-0000-00-000-0-0-0000-00-000-|-----------------3-3-333-| \

A|---------------------------------|-3-3-3333-33-333-1-1-111-|  \

E|-3-3-3333-33-333-3-3-3333-33-333-|-0-0-0001-11-111---------|   \

                                                                  \__x2

                                                                  /

Guitar 2 (Distortion):                                           /

                                                                /

e|---------------------------------|                           /

B|---------------------------------|                          /

G|-8-8-8888-88-888-7-7-7777-77-777-|

D|---------------------------------|

A|-6-6-6666-66-666-5-5-5555-55-555-|

E|---------------------------------|


Interlude Part 1

(One guitar only)


*= Harmonic on 3rd fret


e|-----------------|----------------|

B|-----------------|----------------|

G|-----------------|----------------|

D|-----------------|----------------|

A|-555-555-555-555-|555-555-555-555-| x1

E|-333-333-333-333-|333-333-333-333-|


then:


e|-----------------|----------------|

B|-----------------|----------------|

G|-----------------|----------------|

D|-----------------|----------------|

A|-555-555-555-555-|555-555-555-555-| x2

E|-333*333*333*333*|333*333*333*333*|


"All my life I've been searching for something..."


Interlude Part 2

(Two Guitars)


Guitar 1

(Distortion)


e|-3333333333333333|3333333333333333|

B|-3333333333333333|3333333333333333|\

G|-0000000000000000|0000000000000000| \

D|-0000000000000000|0000000000000000|  \

A|-----------------|----------------|   \

E|-3333333333333333|3333333333333333|    \

                                          \

"...All night long I dream of the day..."  \

                                            \

                                             \

Guitar 2                                      \

(Distortion)                                   ------ x6

                                              /

Here guitar 2 bends slowly up from 5 to 7 on /

g-string. Use the same timing as with       /

guitar 1's part.                           /

                                          /

e|-----------------|----------------|    /

B|-----------------|----------------|   /

G|-5>>>>>>bu>>>>>>7|5>>>>>>bu>>>>>>7|  /

D|-----------------|----------------| /

A|-----------------|----------------|/

E|-----------------|----------------|



Bass Line:


(It sounds like theres actually three guitars for this part, but i 

just figured a bass guitar could do this part, but if u have a third

guitarist or a sampler on a pedal, its just the intro riff.


G|-----------------|----------------|

D|-----------------|----------------|

A|-----------------|----------------|  x6

E|-333-333-333-333-|333-333-333-333-|


Interlude Part 3

(Two Guitars)


The notes in brackets are not played the first time around, but are 

played every other time around (the chords are in groups of 3 but the 

first time they strike the chords in this part, they only play them twice).


Guitar 1

(Distortion)


e|-(3)33-333-333-333|-333-333-333-333|

B|-(3)33-333-333-333|-333-333-333-333|\

G|-(0)00-000-000-000|-000-000-000-000| \

D|-(0)00-000-000-000|-000-000-000-000|  \

A|------------------|----------------|   \

E|-(3)33-333-333-333|-333-333-333-333|    \

                                           \

                                            \_______x4

Guitar 2                                    /

(Distortion)                               /

                                          /

e|------------------|----------------|   /

B|------------------|----------------|  /

G|------------------|----------------| /

D|-(5)55-555-555-555|-555-555-555-555|/

A|-(5)55-555-555-555|-555-555-555-555|

E|-(3)33-333-333-333|-333-333-333-333|


End Solo (Wah-wah?)


This is played to guitar 1 part of interlude 3.


e|-66666666666666bu8-6bu8|-6666666666666bu9-6bu9|

B|-----------------------|----------------------|

G|-----------------------|----------------------| x2

D|-----------------------|----------------------|

A|-----------------------|----------------------|

E|-----------------------|----------------------|

 



Tom Petty and the Heartbreakers Announce 40th Anniversary 2017 Tour