You are here

Tabs: Jingle Bell Rock

Tabs: Jingle Bell Rock

 

 

 

 

 

 

 

 

 

 

 

 

 

e|--------------|---------|-----------|---------|------------|---------|

b|-1-1-1--0-0-0-|---0-----|---0-------|--0------|------------|---------|

g|--------------|-2---2---|-2---2---0-|2---2----|-------0-2-0|-------0-|

d|--------------|-------2-|-------2---|------3--|-0-2-3------|-0-2-3---|

a|--------------|---------|-----------|---------|------------|---------|

E|--------------|---------|-----------|---------|------------|---------|

jingle bell jingle bell jingle bell rock...       snowin and blowin...


e|-----------|------|

b|-----------|------|

g|-2-1-2-1-2-|2-----|

d|-----------|--1-1-| 

a|-----------|------| 

E|-----------|------|

Now the jingle hop has begun...


e|--------------|---------|-----------|---------|------------|---------|

b|-1-1-1--0-0-0-|---0-----|---0-------|--0------|------------|---------|

g|--------------|-2---2---|-2---2---0-|2---2----|-------0-2-0|-------0-|

d|--------------|-------2-|-------2---|------3--|-0-2-3------|-0-2-3---|

a|--------------|---------|-----------|---------|------------|---------|

E|--------------|---------|-----------|---------|------------|---------|


*This is where it changes from the first time around.*


e|-----------|

b|-----0---1-|

g|-2-2---0---|

d|-----------| 

a|-----------|

E|-----------|

In the frosty air...



e|-----------|-----------|--------------|

b|-1-1-1-3-1-|---1-1-3-1-|-1-1-0--------|

g|-----------|-2---------|-------2-0----|

d|-----------|-----------|-----------2--|

a|-----------|-----------|--------------|

E|-----------|-----------|--------------|

What a bright time it's the right time...



e|-----------|-----------|--------------------|

b|-1-1-1-3-1-|---1-1-3-1-|-------------0------|

g|-----------|-2---------|-0-0-2-2-2-2---2-0--|

d|-----------|-----------|--------------------|

a|-----------|-----------|--------------------|

E|-----------|-----------|--------------------|

Jingle bell time is a swell time...



e|--------------|---------|---------|-----|

b|-1-1-1--0-0-0-|---0-----|---0-----|-----|

g|--------------|-2---2---|-2---2---|0-2--|

d|--------------|-------2-|-------2-|-----|

a|--------------|---------|---------|-----|

E|--------------|---------|---------|-----|

Giddy up jingle horse pick up your feet...



e|-------------|----------|

b|---1-3-3-1-1-|-----1-3--|

g|-2-----------|-1-1------|

d|-------------|----------|

a|-------------|----------|

E|-------------|----------|

Mix and mingle in a jiglin beat...


e|-----------|-----------|--------------|

b|-1---0-----|-1---0-----|-1---0-1-3-1--|

g|---2---2-0-|---2---2-0-|---2----------|

d|-----------|-----------|--------------|

a|-----------|-----------|--------------|

E|-----------|-----------|--------------|

Thats the jingle bell, thats the jingle bell, thats the jingle bell rock.

 



What to Think About When Improvising a Guitar Solo