You are here

Tabs: Metallica "Of Wolf And Man"

Tabs: Metallica

USER-SUBMITTED TAB

Below is a user-submitted guitar tablature for the song "Of Wolf and Man" by Metallica, one of several user-submitted tabs to be found on GuitarWorld.com.

Please note that this is not an official Guitar World tab. For official tabs, visit the Hal Leonard website.

Artist: Metallica

Song: "Of Wolf and Man"

Album: Metallica

 

 

Intro:
  E5
|---------|---------|---------|---------|---------|---------|
|---------|---------|---------|---------|---------|---------|
|---------|---------|---------|---------|---------|---------|
|-2-2-2-2-|-2-2-2-2-|-2-2-2-2-|-2-2-2-2-|-2-2-2-2-|-2-2-2-2-|
|-2-2-2-2-|-2-2-2-2-|-2-2-2-2-|-2-2-2-2-|-2-2-2-2-|-2-2-2-2-|
|-0-0-0-0-|-0-0-0-0-|-0-0-0-0-|-0-0-0-0-|-0-0-0-0-|-0-0-0-0-|


(riff 1)  F5 E5    B5   Bb5         F5 E5   B5    Bb5
|-------------------------|---------------------------------|
|-------------------------|---------------------------------|
|-------------------------|---------------------------------|
|------------------4----3-|------------------4----3---------|
|---------3--2-----2----1-|---------3--2-----2----1---------|
|-0--0-0--1--0--0----0----|-0--0-0--1--0--0----0------------|
 P.M___|       P.M  P.M    P.M___|       P.M  P.M


(Riff 2)  F5 E5          B5 Bb5         F5 E5          B5 Bb5 
|-----------------------------|-----------------------------|
|-----------------------------|-----------------------------|
|-----------------------------|-----------------------------| x2
|------------------------4--3-|------------------------4--3-|
|---------3--2-----------2--1-|---------3--2-----------2--1-|
|-0--0-0--1--0---0--0-0-------|-0--0-0--1--0---0--0-0-------|
  P.M__|         P.M__|         P.M__|         P.M__|


VERSE ONE:
(With Riff 2 x8)

Off through the new days mist I run. 
Out from the new days mist I have come.
I hunt, therefore I am, harvest the land.
Taking of the fallen lamb___

(Riff 3) F5 E5     B5   Bb5
 __
|-----------------------------|-----------------------------|
|-----------------------------|-----------------------------|
|-----------------------------|-----------------------------|
|------------------4----3-----|-----------------------------|
|---------3--2-----2----1-----|------5h7p5p0--5h7--5h7---\--|
|-0--0-0--1--0--0----0--------|-5--7------------------------|
 P.M___|       P.M  P.M        P.M_|

|-----------------------------|-----------------------------|
|-----------------------------|-----------------------------|
|-----------------------------|-----------------------------|
|------------------4----3-----|-----------------------------|
|---------3--2-----2----1-----|------5h7p5p0--5h7--5h7---\--|
|-0--0-0--1--0--0----0--------|-5--7------------------------|
 P.M___|       P.M  P.M        P.M_|


VERSE TWO/INTO CHORUS:
(With Riff 3 x4)

Off through the new day's mist I run.
Out from the new day's mist I have come.
We shift, pulsing with the earth.
Company we keep, Roming the land while you___

   E5               B5   Bb5                  E5   F5 E5    B5  Bb5
 ___sleep    Oh_________       Shape Shift   Nose to the wind
|--------------|-------------|--------------|-----------------------|
|--------------|-------------|--------------|-----------------------|
|--------------|-------------|--------------|-----------------------|
|--2--2--2--2--|-----4----3--|--------------|---------------4---3---|
|--2--2--2--2--|-----2----1--|--------------|-2-2--3--2-----2---1---|
|--0--0--0--0--|--0----0-----|--------------|-0-0--1--0--0----0-----|
                 P.M  P.M                               P.M  P.M

                 E5   F5 E5    C#5 C5                  F#5  G5 F#5
  Shape Shift  Feeling i've been        Move Swift__   All senses-
|--------------|-----------------------|--------------|------------|
|--------------|-----------------------|--------------|------------|
|--------------|-----------------------|--------------|------------|
|--------------|---------------6---5---|--------------|------------|
|--------------|-2-2--3--2-----4---3---|--------------|-4-4--5--4--|
|--------------|-0-0--1--0--0----0-----|--------------|-2-2--3--2--|
                           P.M  P.M

    C#5   C5                            G5 F#5        G5 F#5
 -clean______   Earth's Gift                Back to the meaning
|-------------|-------------|--------------------------------------|
|-------------|-------------|--------------------------------------|
|-------------|-------------|--------------------------------------|
|----6----5---|-------------|--------------------------------------|
|----4----3---|-------------|-----------5--4------------5--4-------|
|-0----0------|-------------|-2----2-2--3--2--2----2-2--3--2-------|
 P.M  P.M                    P.M_____|        P.M____|

  F#5                               F5 E5  Bb5 B5  
 of___                  life
|--------------------------|---------------------|-----------------------|
|--------------------------|---------------------|-----------------------|
|--------------------------|---------------------|-----------------------|
|--------------------------|----------------4---3|-----------------------|
|-4----4----4----4---------|--------3--2----2---1|-----5h7p5p0-5h7-5h7-\-|
|-2----2----2----2------14\|-0-0-0--1--0--0---0--|5--7-------------------|
                            P.M__|       P.M P.M  P.M_|

          F5 E5    Bb5  B5
|-----------------------------|-----------------------------|
|-----------------------------|-----------------------------|
|-----------------------------|-----------------------------|
|------------------4----3-----|-----------------------------|
|---------3--2-----2----1-----|------5h7p5p0--5h7--5h7---\--|
|-0--0-0--1--0--0----0--------|-5--7------------------------|
 P.M___|       P.M  P.M        P.M_|



VERSE THREE/INTO CHORUS:
(With riff 3 x4)

Bright as the moon, high in starlight.
Chill in the air, cold as steel tonight.
We shift, Call of the wild.
Fear in your eyes. It later than you realized__

  E5               B5   Bb5                  E5   F5 E5    B5  Bb5
 ___        Oh_________       Shape Shift   Nose to the wind
|--------------|-------------|--------------|-----------------------|
|--------------|-------------|--------------|-----------------------|
|--------------|-------------|--------------|-----------------------|
|--2--2--2--2--|-----4----3--|--------------|---------------4---3---|
|--2--2--2--2--|-----2----1--|--------------|-2-2--3--2-----2---1---|
|--0--0--0--0--|--0----0-----|--------------|-0-0--1--0--0----0-----|
                 P.M  P.M                               P.M  P.M

                 E5   F5 E5    C#5 C5                  F#5  G5 F#5
  Shape Shift  Feeling i've been        Move Swift__   All senses-
|--------------|-----------------------|--------------|------------|
|--------------|-----------------------|--------------|------------|
|--------------|-----------------------|--------------|------------|
|--------------|---------------6---5---|--------------|------------|
|--------------|-2-2--3--2-----4---3---|--------------|-4-4--5--4--|
|--------------|-0-0--1--0--0----0-----|--------------|-2-2--3--2--|
                           P.M  P.M

    C#5   C5                            G5 F#5        G5 F#5
 -clean______   Earth's Gift                Back to the meaning
|-------------|-------------|--------------------------------------|
|-------------|-------------|--------------------------------------|
|-------------|-------------|--------------------------------------|
|----6----5---|-------------|--------------------------------------|
|----4----3---|-------------|-----------5--4------------5--4-------|
|-0----0------|-------------|-2----2-2--3--2--2----2-2--3--2-------|
 P.M  P.M                    P.M_____|        P.M____|

  F#5                           
 of___                 life
|--------------------------|
|--------------------------|
|--------------------------|
|--------------------------|
|-4----4----4----4---------|
|-2----2----2----2------14\|


(Riff 2)  F5 E5          B5 Bb5         F5 E5          B5 Bb5 
|-----------------------------|-----------------------------|
|-----------------------------|-----------------------------|
|-----------------------------|-----------------------------| x2
|------------------------4--3-|------------------------4--3-|
|---------3--2-----------2--1-|---------3--2-----------2--1-|
|-0--0-0--1--0---0--0-0-------|-0--0-0--1--0---0--0-0-------|
  P.M__|         P.M__|         P.M__|         P.M__|


(riff 1)  F5 E5    B5   Bb5
|---------------------------------|
|---------------------------------|
|---------------------------------|
|------------------4----3---------|
|---------3--2-----2----1---------|
|-0--0-0--1--0--0----0------------|
 P.M___|       P.M  P.M


SOLO(Kirk plays):
|-------------------------------------|--------------------|
|-------------------------------------|--------------------|
|-4p2p0---0----4p2p0---0----4p2p0-----|-4p2p0--------------|
|-------2------------2------------2p0-|-------4p2p0--------|
|-------------------------------------|-------------4p2p0--|
|-------------------------------------|--------------------|
||
|----------------------------------|-----------------------|
|----------------------------------|-----------------------|
|-<4>p2p0-<4>p2p0------------------|-----------------------|
|-----------------4p2p0-4p2p0------|-----------------------|
|----------------------------4p2p0-|-2p0-3p0-4p0-5p0-6p0---|
|----------------------------------|-----------------------|
||
|--------------------------------|-------------------------|
|--------------------------------|-------------------------|
|--------------------------------|------------12-14-14b(16)|
|--------------------------------|------12h14--------------|
|-7p0-8p0-9p0-9p0-10p0-11p0-12p0-|12h14--------------------|
|--------------------------------|-------------------------|
||
|----------------------------------------------------------|
|-----------12-15-------12--15p12---12h15p12----12h15p12---|
|-12----9/14-----14b(16)---------14----------14----------14|
|----14----------------------------------------------------|
|----------------------------------------------------------|
|----------------------------------------------------------|
||
|----------------------------------------------------------|
|12h15p12----12h15p12----12h15p12---12h15p12---12h15p12----|
|---------14----------14---------14---------14----------14-|
|----------------------------------------------------------|
|----------------------------------------------------------|
|----------------------------------------------------------|
||
|-----------------------------12-------------------12------|
|-12h15p12--15b(17)--15b(17)------15p12---------12----15p12|
|---------------------------------------14b(16)------------|
|----------------------------------------------------------|
|----------------------------------------------------------|
|----------------------------------------------------------|
||
|--------12-12---------------------------------------------|
|--------------15p12---------12-15p12----------------------|
|-14b(16)------------14b(16)----------14p12----12--14b(16)-|
|-------------------------------------------14-------------|
|----------------------------------------------------------|
|----------------------------------------------------------|
||
|----------------------------------------------------------|
|--12------------------------------------------------------|
|-----14~~~~~~~~~~~~~~~~~~~~~~~~~~~~\8/17------------------|
|----------------------------------------------------------|
|----------------------------------------------------------|
|----------------------------------------------------------|
||
|----------------------------------------------------------|
|-15----15-15-----15-15-----17p15------15----15-15---------|
|-15----15-15-----15-15-----17p15------15----15-15---------|
|--------------------------------17------------------------|
|----------------------------------------------------------|
|----------------------------------------------------------|
||
|----------------------------------------------------------|
|-17p15----------------------------------------------------|
|-17p15----15--17p15-----15--17p15-----------15\-----------|
|-------17-----------17------------17-15-17----------------|
|----------------------------------------------------------|
|----------------------------------------------------------|
||
|----------------------------------------------------------|
|---------------------------------------8------8-----------|
|--------------8-----8-----10--8--10-------10--------------|
|-10--8--18-------10---------------------------------------|
|----------------------------------------------------------|
|----------------------------------------------------------|
||                                       HOLD BEND_________
|--------8-------------------------------------------------|
|11b(13)---11p8---------8--11p8-11b(13)-(13)(13)(13)(13(13)|
|---------------10b(11)------------------------------------|
|----------------------------------------------------------|
|----------------------------------------------------------|
|----------------------------------------------------------|
||_________________________________________________________
|----------------------------------------------------------|
|-(13)----(13)(13)----(13)--(13)--(13)--(13)--(13)--(13)---|
|----------------------------------------------------------|
|----------------------------------------------------------|
|----------------------------------------------------------|
|----------------------------------------------------------|
||___
|---------------------|------------------------------------|
|----r11--8-----------|-------------14p12----12h14p12------|
|-----------9---------|-12h14p12---------------------------|
|---------------10/14-|----------14-------14----------14---|
|---------------------|------------------------------------|
|---------------------|------------------------------------|
||
|----------------------------------------------------------|
|-14p12-----------------14p12-----------------14p12--------|
|-----------12h14p12--------------12h14p12-----------------|
|-------14-----------14-------14-----------14-------14-----|
|----------------------------------------------------------|
|----------------------------------------------------------|
||                                  With Echo
|-------------------------|---------------|----------------|
|--------------------12---|---------12----|-----\----------|
|-12h14p12-----------12---|---------12----|-----\----------|
|----------14-12-14-------|---------------|----------------|
|-------------------------|---------------|----------------|
|-------------------------|---------------|----------------|



INTERLUDE:
         F5  E5    
(Riff Four)
|-----------------------------|----------------------------|
|-----------------------------|----------------------------|
|-----------------------------|----------------------------| x3
|-----------------------------|----------------------------|
|---------3--2----------------|----------------------------|
|-0--0-0--1--0--x--x-x-x--x-x-|-x--x-x-x--x-x-x--x-x-x--x-x|
 P.M___|


 GUITAR TWO            HOLD BEND___________________________
|-----------------------------|----------------------------|
|----------------15b(17)~~~~~~|~~~~~~~~~~~~~~~~~~~~~~~~~~~~|
|-----------------------------|----------------------------|
|-----------------------------|----------------------------|
|-----------------------------|----------------------------|
|-----------------------------|----------------------------|
||GUITAR ONE
||       F5  E5    
|-----------------------------|----------------------------|
|-----------------------------|----------------------------|
|-----------------------------|----------------------------|
|-----------------------------|----------------------------|
|---------3--2----------------|----------------------------|
|-0--0-0--1--0--x--x-x-x--x-x-|-x--x-x-x--x-x-x--x-x-x--x-x|
 P.M___|


 ______________                                  HOLD BEND_
|-----------------------------|----------------------------|
|~~~~~~~~~~~~-----------------|----------------------------|
|-----------------------------|------------------14b(16)---|
|-----------------------------|----------------------------|
|-----------------------------|----------------------------|
|-----------------------------|----------------------------|
||
||       F5  E5    
|-----------------------------|----------------------------|
|-----------------------------|----------------------------|
|-----------------------------|----------------------------|
|-----------------------------|----------------------------|
|---------3--2----------------|----------------------------|
|-0--0-0--1--0--x--x-x-x--x-x-|-x--x-x-x--x-x-x--x-x-x--x-x|
 P.M___|


___________________                      T.B
|-----------------------------|----------------------------|
|-----------------------------|----------------------------|
|------------------r14--------|--------12\/\/\/\/\/\/\/\/\/|
|-----------------------------|----------------------------|
|-----------------------------|----------------------------|
|-----------------------------|----------------------------|
||
||       F5  E5    
|-----------------------------|----------------------------|
|-----------------------------|----------------------------|
|-----------------------------|----------------------------|
|-----------------------------|----------------------------|
|---------3--2----------------|----------------------------|
|-0--0-0--1--0--x--x-x-x--x-x-|-x--x-x-x--x-x-x--x-x-x--x-x|
 P.M___|

 P.M___|

|-----------------------------|----------------------------|
|---------------------15b(17)-|-----15p12------------------|
|\/\/\/\/\/\/\/\/\------------|------------14----12--------|
|-----------------------------|----------------------------|
|-----------------------------|----------------------------|
|-----------------------------|----------------------------|
||
||  (Spoken) I feel the change     
||       F5  E5    
|-----------------------------|----------------------------|
|-----------------------------|----------------------------|
|-----------------------------|----------------------------|
|-----------------------------|----------------------------|
|---------3--2----------------|----------------------------|
|-0--0-0--1--0--x--x-x-x--x-x-|-x--x-x-x--x-x-x--x-x-x--x-x|
 P.M___|

                          HOLD BEND___________________
|-----------------------------|----------------------------|
|-----------------------------|----------------------------|
|-----------------------------|----------------------------|
|------------------------7b(9)|-----------------------r7p5-|
|-----------------------------|----------------------------|
|-----------------------------|----------------------------|
||
|| Back to a better day  
||       F5  E5    
|-----------------------------|----------------------------|
|-----------------------------|----------------------------|
|-----------------------------|----------------------------|
|-----------------------------|----------------------------|
|---------3--2----------------|----------------------------|
|-0--0-0--1--0--x--x-x-x--x-x-|-x--x-x-x--x-x-x--x-x-x--x-x|


GUITARS ONE AND TWO  
           G5 F#5        C#5 C5         G5 F#5          C#5 C5
   (Shape Shift)              The hair stands on the back of my neck
|------------------------------|------------------------------|
|------------------------------|------------------------------|
|------------------------------|------------------------------|
|\4-----------------------6--5-|-------------------------6--5-|
|---------5--4------------4--3-|---------5--4------------4--3-|
|-2--2-2--3--2----2--2-2-------|-2--2-2--3--2----2--2-2-------|
 P.M___|         P.M___|         P.M___|         P.M___|

           G5 F#5        C#5 C5         G5 F#5          C#5 C5
  (shape Shift__)             In wildness is the preservation of the world
|------------------------------|------------------------------|
|------------------------------|------------------------------|
|------------------------------|------------------------------|
|-------------------------6--5-|-------------------------6--5-|
|---------5--4------------4--3-|---------5--4------------4--3-|
|-2--2-2--3--2----2--2-2-------|-2--2-2--3--2----2--2-2-------|
 P.M___|         P.M___|         P.M___|         P.M___|


GUITAR TWO
        T.B\* Depress bar before striking notes at 12th, return
              gradually to the normal position.          (With Echo)
|-----------------/|=====================================|---------|
|----------------/-|-------------------------------------|\--------|
|-----------<0>-/--|-------------------------------------|-\<12>---|
|-----------<0>-\--|-------------------------------------|-/<12>---|
|----------------\-|-------------------------------------|/--------|
|-----------------\|=====================================|---------|
||GUITAR ONE
||  B5  C5  C#5 D5   C5  C#5 D5 D#5
||                   So seek the wolf in thyself.
|------------------|------------------------------------|
|------------------|------------------------------------|
|---3---5---6---7--|-5------------6--------7--------8---|
|---3---5---6---7--|-5------------6--------7--------8---|
|---1---3---4---5--|-3------------4--------5--------6---|
|------------------|------------------------------------|


CHORUS:
  E5               B5   Bb5                  E5   F5 E5    B5  Bb5
            Oh_________       Shape Shift   Nose to the wind
|--------------|-------------|--------------|-----------------------|
|--------------|-------------|--------------|-----------------------|
|--------------|-------------|--------------|-----------------------|
|--2--2--2--2--|-----4----3--|--------------|---------------4---3---|
|--2--2--2--2--|-----2----1--|--------------|-2-2--3--2-----2---1---|
|--0--0--0--0--|--0----0-----|--------------|-0-0--1--0--0----0-----|
                 P.M  P.M                               P.M  P.M

                 E5   F5 E5    C#5 C5                  F#5  G5 F#5
  Shape Shift  Feeling i've been        Move Swift__   All senses-
|--------------|-----------------------|--------------|------------|
|--------------|-----------------------|--------------|------------|
|--------------|-----------------------|--------------|------------|
|--------------|---------------6---5---|--------------|------------|
|--------------|-2-2--3--2-----4---3---|--------------|-4-4--5--4--|
|--------------|-0-0--1--0--0----0-----|--------------|-2-2--3--2--|
                           P.M  P.M

    C#5   C5                            G5 F#5        G5 F#5
 -clean______   Earth's Gift                Back to the meaning
|-------------|-------------|--------------------------------------|
|-------------|-------------|--------------------------------------|
|-------------|-------------|--------------------------------------|
|----6----5---|-------------|--------------------------------------|
|----4----3---|-------------|-----------5--4------------5--4-------|
|-0----0------|-------------|-2----2-2--3--2--2----2-2--3--2-------|
 P.M  P.M                    P.M_____|        P.M____|


     B5    Bb5                  C#5 C5            C5  C#5  D5  D#5
                  Of wolf______       and man______________    Yeah
|-------------------------|-----------|----------------------------|
|-------------------------|-----------|----------------------------|
|-------------------------|-----------|----------------------------|
|----4-----3--------------|-----6---5-|------------5---6---7---8\--|
|----2-----1--------------|-----4---3-|------------3---4---5---6\--|
|-0-----0-----------------|-----------|----------------------------|
 P.M   P.M

          F5 E5    Bb5  B5
|-----------------------------|-----------------------------|
|-----------------------------|-----------------------------|
|-----------------------------|-----------------------------|
|------------------4----3-----|-----------------------------|
|---------3--2-----2----1-----|------5h7p5p0--5h7--5h7---\--|
|-0--0-0--1--0--0----0--------|-5--7------------------------|
 P.M___|       P.M  P.M        P.M_|

          F5 E5    Bb5  B5
|-----------------------------|-----------------------------|
|-----------------------------|-----------------------------|
|-----------------------------|-----------------------------|
|------------------4----3-----|-----------------------------|
|---------3--2-----2----1-----|------5h7p5p0--5h7--5h7~~~~~~|
|-0--0-0--1--0--0----0--------|-5--7------------------------|
 P.M___|       P.M  P.M        P.M_|
 
   G5    G5    F#5                          E5
|-----------------|-----------------------|----------------|
|-----------------|-----------------------|----------------|
|-----------------|-----------------------|----------------|
|-----------------|-----------------------|-2---2---2---2--|
|--5-----5--5--4--|-----------------------|-2---2---2---2--|
|--3--0--3--3--2--|-----------------------|-0---0---0---0--|



OK, THATS THE WHOLE SONG IN ORDER FOR YOU JUST TO PLAY ALL THE WAY
THROUGH.

COMMENTS WOUL BE APRECIATED, PLEASE RATE THIS TAB. IM SURE IT IS
ACCURATE.

-----------------------------------------------------------------------------
			                KEY
-----------------------------------------------------------------------------
::Standard Symobls::
| /    slide up.
| \    slide down.
| h    hammer-on.
| p    pull-off.
| ~    vibrato.
| +    harmonic.
| x    Mute note.
| b    bend.
| r    release.

::Advanced Symbols::
| <4>     Artificial Harmonic-Add edge of thumb/tip of finger to pick attack
| [16]    Ghost Note.
| 14b(16) Bend to note in brackets.
| T.B     Tremlo Bar vibrato.

 

 



Forgotten Guitar: Before Hendrix, Elvis and Chuck Berry, There Was Sister Rosetta Tharpe