You are here

Tabs: Rob Zombie "The Beginning Of The End"

Tabs: Rob Zombie

 

USER-SUBMITTED TAB

Below is a user-submitted guitar tablature for the song "The Beginning Of The End" by Rob Zombie, one of several user-submitted tabs to be found on GuitarWorld.com.

Please note that the tablature on this page is not an official tab. For official tabs, be sure to visit http://www.halleonard.com/

Artist: Rob Zombie

Song: "The Beginning Of The End"

Album: Hellbilly

 

 

Use down-stroke picking for every rhythm part
Gtr I
 
 Verse
e|-----------------|-----------------|
b|-----------------|-----------------|
G|-7-7-7-7-7-7-7-7-|-7-7-7---5-5-5-5-|
D|-----------------|-----------------|
A|-5-5-5-5-5-5-5-5-|-5-5-5---3-3-3-3-|
D|-0-0-0-0-0-0-0-0-|-0-0-0-----------|
 
 Chorus
e|-----------------|-----------------|
b|-----------------|-----------------|
G|-----------------|-----------------|
D|-----------------|-----------------|
A|-1-1-1-1-1-1-1-1-|-1-1-1---1-1-1-1-|
D|-----------------|-----------------|
e|-----------------|-----------------|
b|-----------------|-----------------|
G|-----------------|-----------------|
D|-----------------|-----------------|
A|-----------------|-----------------|
D|-5-5-5-5-5-5-5-5-|-5-5-5---5-5-5-5-|
Gtr II (whole song)
                       1/4
e|-----------------|-----------------|
b|-----------------|-----------------|
G|-7-7-7-7-7-7-7-7-|-7-7b7-7-7-7-7-7-|
D|-----------------|-----------------|
A|-5-5-5-5-5-5-5-5-|-5-5b5-5-5-5-5-5-|
D|-----------------|-----------------|
Gtr III (second chorus)
e|-------------------------|-------------------------|
b|-------------------------|-------------------------|
G|-17-17-17-17-17-17-17-17-|-17-17-17-17-17-17-17-17-|
D|-------------------------|-------------------------|
A|-15-15-15-15-15-15-15-15-|-15-15-15-15-15-15-15-15-|
D|-------------------------|-------------------------|
Solo
e|-------------------------|-------------------------|
b|-------------------------|-------------------------|
G|-17-17-17-17-17-17-17-17-|-17----------------------|
D|-------------------------|-------------------------|
A|-------------------------|----17-17-17-17-17-17-17-|
D|-------------------------|-------------------------|
e|-------------------------|-------22----------------|
b|-------------------------|-------------------------|
G|-------19-19-19-19-19-17-|-19-19----18-------------|
D|-------------------------|-------------------------|
A|-17-17-------------------|-------------------------|
D|-------------------------|-------------------------|
e|-------------------------|-------------------------|
b|-------------------------|-------------------------|
G|-------------------------|-------------------------|
D|----------0--16----0--14-|----12p0--12-------------|
A|-------------------------|-------------------------|
D|-------------------------|-------------------------|
e|-------------------------|-------------------------|
b|-------------------------|-0-----------------------|
G|-------5\4--4--4--4------|-------------------------|
D|-12p0--------------------|--------3----------------|
A|-------3\2--2--2--2------|-------------------------|
D|-------------------------|-------------------------|
e|-------------------------|-------------------------|
b|-------------------------|----15-------------------|
G|-14-14-14-7--7--7--7--7--|-------17-16----14-0-----|
D|-------------------------|-15----------15----------|
A|-12-12-12-5--5--5--5--5--|-------------------------|
D|-------------------------|-------------------------|
e|-------------------------|-------------------------|
b|-------------------------|-------------------------|
G|-14----------19p0--0--19-|-------------------------|
D|-------------------------|-21----------------------|
A|-------------------------|----20-------------------|
D|-------------------------|-------------------------|

 



Guns N’ Roses’ “Sweet Child O’ Mine”: The 10 Weirdest Covers