You are here

Tabs: The Strokes "The Modern Age"

Tabs: The Strokes

 

USER-SUBMITTED TAB

Below is a user-submitted guitar tablature for the song "The Modern Age" by The Strokes, one of several user-submitted tabs to be found on GuitarWorld.com.

Please note that the tablature on this page is not an official tab. For official tabs, be sure to visit http://www.halleonard.com/

Artist: The Strokes

Song: "The Modern Age"

Album: Is This It

 

 

 

INTRO(GUITAR 1)
e-------------------------------
B-7---7---7---7---5---5---5---5-
G-7---7---7---7---7---7---7---7- x 4
D-7---7---7---7---7---7---7---7-
A-------------------------------
E-------------------------------

VERSE
(GUITAR 1)
e-------------------------------
B-7---7---7---7---5---5---5---5-
G-7---7---7---7---7---7---7---7- x 2
D-7---7---7---7---7---7---7---7-
A-------------------------------
E-------------------------------

e-------------------------------
B-5---5---5---5---3---3---3---3-
G-4---4---4---4---4---4---4---4- x 2
D-5---5---5---5---5---5---5---5-
A-------------------------------
E-------------------------------

(GUITAR 2)PALM MUTED
e---------------------------------
B-7-7-7-7-7-7-7-7-5-5-5-5-5-5-5-5-
G-7-7-7-7-7-7-7-7-7-7-7-7-7-7-7-7-
D-7-7-7-7-7-7-7-7-7-7-7-7-7-7-7-7- x 2
A---------------------------------
E---------------------------------

e---------------------------------
B-5-5-5-5-5-5-5-5-3-3-3-3-3-3-3-3-
G-4-4-4-4-4-4-4-4-4-4-4-4-4-4-4-4-
D-5-5-5-5-5-5-5-5-5-5-5-5-5-5-5-5- x 2
A---------------------------------
E---------------------------------

PRE CHORUS
(GUITAR 1)
e-------------------------------
B-3---3---3---3---3---3---3---3-
G-4---4---4---4---4---4---4---4-
D-5---5---5---5---5---5---5---5-
A-------------------------------
E-------------------------------

(GUITAR 2)RELEASE PALM MUTE
e---------------------------------
B-3-3-3-3-3-3-3-3-3-3-3-3-3-3-3-3-
G-4-4-4-4-4-4-4-4-4-4-4-4-4-4-4-4-
D-5-5-5-5-5-5-5-5-5-5-5-5-5-5-5-5-
A---------------------------------
E---------------------------------

CHORUS
(BOTH GUITARS) x 2
e------------------------------------------------------------------
B-7777777777777777888888888888888877777777777777775555555555555555-
G-7777777777777777777777777777777777777777777777777777777777777777-
D-7777777777777777777777777777777777777777777777777777777777777777-
A------------------------------------------------------------------
E------------------------------------------------------------------

SOLO
e-------------------------------------------------------
B-------------------------------------------------------
G-12b-12b-12b-12b-12b-10----10-12-12-12b-10----10-12-12-
D------------------------12-----------------12----------
A-------------------------------------------------------
E-------------------------------------------------------

e--------------------------------------------------------
B--------------------------------------------------------
G-12b-12-12b-12-12b-12-12b-10----10-12-------------------
D-----------------------------12--------1212121212121212-
A--------------------------------------------------------
E--------------------------------------------------------

e-----------------------------------------------------------
B-----------------------------------------------------------
G-----------------------------------------------------------
D-12-0-10-0-7-0-5-0-3-0-3-0-5-0-7-0-12-0-10-0-7-0-5-0-3-0-3-
A-----------------------------------------------------------
E-----------------------------------------------------------

e-----------------------------------------------------------
B-----------------------------------------------------------
G-----------12-0-10-0-7-0-5-0-4-0-4-0-5-0-7-0-12-0-10-0-7-0-
D-0-5-0-7-0-------------------------------------------------
A-----------------------------------------------------------
E-----------------------------------------------------------

e------------------------------------------------14b-14b-14b-----
B------------------------------------------------------------12b-
G-5-0-4-0-4-0-5-0-7-12b-12-12b-12--12b-12-12b-12-----------------
D-------------------12b-12-12b-12--12b-12-12b-12-----------------
A----------------------------------------------------------------
E----------------------------------------------------------------

ENDING
A-20\---

 

 



Capo Classics: 16 Essential Guitar Songs Played with a Capo