Bass Tabs: The Beatles "Anytime At All"

USER-SUBMITTED TAB

Below is a user-submitted guitar tablature for the song "Any Time at All" by The Beatles, one of several user-submitted tabs to be found on GuitarWorld.com. Please note that the tablature on this page is not an official tab. For official tabs, visit the Alfred Music Publishing website.

Artist: The Beatles

Song: "Anytime at All”

Please note that this is not an official Guitar World tab.

Refrain:

G|------- ------- ------- -------|------- ------- ------- -------|

D|-------------------------------|-------------------------------|

A|-------------------------------|-------------------------------|

E|-------------------------------|-------------------------------|

Any time at

G|------- ------- ------- -------|------- ------- ------- -------|

D|9-----------9---9---7---9------|-------------------------------|

A|-------------------------------|-------------------------------|

E|----------------------------10-|--------10------10------10-----|

all, any time at

G|------- ------- ------- -------|------- ------- ------- -------|

D|-------------------------------|-------------------------------|

A|12----------12------12---------|12----------12--12----------12-|

E|----------------12-------------|-------------------------------|

all Any time at

G|------- ------- ------- -------|------- ------- ------- -------|

D|9-----------9---9---9---9------|-------------------------------|

A|-------------------------------|10----------10--12------12-----|

E|-------------------------------|-------------------------------|

all, all you've do is call, and I'll be

got

to

G|------- ------- ------- -------|------- ------- ------- -------|

D|-------------------------------|-------------------------------|

A|-------------------------------|-------------------------------|

E|10----------10--10-------------|10----------10--10--10---------|

there

Verse:

G|------- ------- ------- -------|------- ------- ------- -------|

D|-------------------------------|-------------------------------|

A|----------------12-------------|----------------12-------------|

E|10----------10----------10-----|9-----------9-----------9------|

If you need some- bo- dy to love,

G|------- ------- ------- -------|------- ------- ------- -------|

D|9-----------9-----------9------|8-----------8-----------8------|

A|----------------9--------------|----------------10-------------|

E|-------------------------------|-------------------------------|

just look into my eyes,

G|------- ------- ------- -------|------- ------- ------- -------|

D|-------------------------------|-------------------------------|

A|----------------12-------------|12----------12----------12-----|

E|10----------10----------10-----|----------------12-------------|

I'll be there to make you feel right

G|------- ------- ------- -------|------- ------- ------- -------|

D|-------------------------------|-------------------------------|

A|-------------------------------|----------------12-------------|

E|10----------10--10--10---------|9-----------9-----------9------|

If you're sorry and sad,

fee - ling

G|------- ------- ------- -------|------- ------- ------- -------|

D|9-----------9-----------9------|8-----------8-----------8------|

A|----------------9--------------|----------------10-------------|

E|-------------------------------|-------------------------------|

I'd really sympa - thize,

G|------- ------- ------- -------|------- ------- ------- -------|

D|-------------------------------|-------------------------------|

A|----------------12-------------|12----------12----------12-----|

E|10----------10----------10-----|----------------12-------------|

don't be sad, just call me to - night

you

G|------- ------- ------- -------|------- ------- ------- -------|

D|-------------------------------|-------------------------------|

A|----------------12------12-----|-------------------------------|

E|10----------10-----------------|10-----------------------------|

Any time at

Refrain:

G|------- ------- ------- -------|------- ------- ------- -------|

D|9-----------9---9---7---9------|-------------------------------|

A|-------------------------------|-------------------------------|

E|----------------------------10-|--------10------10------10-----|

all, any time at

G|------- ------- ------- -------|------- ------- ------- -------|

D|-------------------------------|-------------------------------|

A|12----------12--12------12-----|12----------12--12------12-----|

E|-------------------------------|-------------------------------|

all Any time at

G|------- ------- ------- -------|------- ------- ------- -------|

D|9-----------9---9-------9---9--|-------------------------------|

A|-------------------------------|10----------10--10/-12--12--12--|

E|-------------------------------|-------------------------------|

all, all you've do is call, and I'll be

got

to

G|------- ------- ------- -------|------- ------- ------- -------|

D|-------------------------------|-------------------------------|

A|-------------------------------|----------------12-------------|

E|10----------10--10----------10-|10----------10-----------------|

there

Verse:

G|------- ------- ------- -------|------- ------- ------- -------|

D|-------------------------------|-------------------------------|

A|----------------12-------------|----------------12-------------|

E|10----------10----------10-----|9-----------9-----------9------|

If the Sun has fa- ded a - way,

G|------- ------- ------- -------|------- ------- ------- -------|

D|9-----------9-----------9------|8-----------8------------------|

A|----------------9--------------|----------------10------10--10-|

E|-------------------------------|-------------------------------|

I'd try to make it shine,

G|------- ------- ------- -------|------- ------- ------- -------|

D|-------------------------------|-------------------------------|

A|----------------12-------------|12----------12-----------------|

E|10----------10----------10-----|----------------12-------------|

there is nothing I won't do

G|------- ------- ------- -------|------- ------- ------- -------|

D|-------------------------------|-------------------------------|

A|-------------------------------|-------------------------------|

E|10----------10--10-------------|9-----------9---9--------------|

When you need a shoulder to cry on,

G|------- ------- ------- -------|------- ------- ------- -------|

D|9-----------9---9--------------|----------------------------8--|

A|-------------------------------|10----------10--10-------------|

E|-------------------------------|-------------------------------|

I hope it will be mine,

G|------- ------- ------- -------|------- ------- ------- -------|

D|-------------------------------|-------------------------------|

A|------------9---12------9------|12----------12-----------------|

E|10-----------------------------|----------------9-------12-----|

call me to- night, and I'll come to you

G|------- ------- ------- -------|------- ------- ------- -------|

D|-------------------------------|-------------------------------|

A|------------9---12------9---12-|-------------------------------|

E|10-----------------------------|10-----------------------------|

Any time at

Refrain:

G|------- ------- ------- -------|------- ------- ------- -------|

D|9-----------9---9---7---9------|-------------------------------|

A|-------------------------------|-------------------------------|

E|----------------------------10-|--------10------10------10-----|

all, any time at

G|------- ------- ------- -------|------- ------- ------- -------|

D|-------------------------------|-------------------------------|

A|12----------12----------12-----|12----------12--12------12-----|

E|----------------12-------------|-------------------------------|

all Any time at

G|------- ------- ------- -------|------- ------- ------- -------|

D|9-----------9---9-------9------|-------------------------------|

A|-------------------------------|10----------10--12--12---------|

E|-------------------------------|----------------------------9--|

all, all you've do is call, and I'll be

got

to

G|------- ------- ------- -------|------- ------- ------- -------|

D|-------------------------------|-------------------------------|

A|-------------------------------|-------------------------------|

E|10----------10--10----------9--|10----------10--10--10---------|

there

Bridge (solo):

G|------- ------- ------- -------|------- ------- ------- -------|

D|-------------------------------|-------------------------------|

A|12----------12--12-------------|12----------12--12------12-----|

E|-------------------------------|-------------------------------|

G|------- ------- ------- -------|------- ------- ------- -------|

D|-------------------------------|-------------------------------|

A|12----------12--12------12-----|12----------12--12------12-----|

E|-------------------------------|-------------------------------|

G|------- ------- ------- -------|------- ------- ------- -------|

D|-------------------------------|-------------------------------|

A|10----------10--10------10-----|12----------12--12------12--12-|

E|-------------------------------|-------------------------------|

G|------- ------- ------- -------|------- ------- ------- -------|

D|-------------------------------|-------------------------------|

A|10----------10--10------10-----|12----------12--12------12-----|

E|-------------------------------|-------------------------------|

G|------- ------- ------- -------|------- ------- ------- -------|

D|-------------------------------|-------------------------------|

A|-------------------------------|-------------------------------|

E|10----------10--10------10-----|10-----------------------------|

Any time at

Refrain:

G|------- ------- ------- -------|------- ------- ------- -------|

D|9-----------9---9---7---9------|-------------------------------|

A|-------------------------------|-------------------------------|

E|----------------------------10-|--------10------10--10---------|

all, any time at

G|------- ------- ------- -------|------- ------- ------- -------|

D|-------------------------------|-------------------------------|

A|12----------12--12--12------12-|12----------12--12--12---------|

E|-------------------------------|-------------------------------|

all Any time at

G|------- ------- ------- -------|------- ------- ------- -------|

D|9-----------9---9-------9------|-------------------------------|

A|-------------------------------|10------10------12------12-----|

E|-------------------------------|-------------------------------|

all, all you've do is call, and I'll be

got

to

G|------- ------- ------- -------|------- ------- ------- -------|

D|-------------------------------|-------------------------------|

A|-------------------------------|-------------------------------|

E|10----------10--10------10--10-|10----------10--10------10-----|

there Any time at

Outro:

G|------- ------- ------- -------|------- ------- ------- -------|

D|-------------------------------|-------------------------------|

A|10----------10--10------10--10-|12----------12--12------12-----|

E|-------------------------------|-------------------------------|

all, all you've do is call, and I'll be

got

to

G|------- ------- ------- -------|------- ------- ------- -------|

D|-------------------------------|----------------12-------------|

A|-------------------------------|--------12---------------------|

E|10----------10--10------10-----|10-----------------------------|

there