Chords: The Beatles "All You Need Is Love"

USER-SUBMITTED TAB

Below is a user-submitted guitar tablature for the song "All You Need is Love" by The Beatles, one of several user-submitted tabs to be found on GuitarWorld.com.

Please note that the tablature on this page is not an official tab.

For official tabs, be sure to visit http://www.halleonard.com/

Artist: The Beatles

Song: "All You Need is Love"

Album: Magical Mystery Tour

intro:

``` means to let the note ring

E-----------------------------------10```---------------------------------

B------------------------10---10----------12---------------------------

G-------------12---12--------------------------12----------------------

D--12---12------------------------------------------------------------

A----------------------------------------------------------------------

E-----------------------------------------------------------------------

E-----------------------------------------------------------------------

B-------12---------------13```------------10--------10--------------

G--12------12----------------------------------12--------------------

D------------------14-------------------------------------------------

A---------------------------------------------------------------------

E-----------------------------------------------------------------------

G D/F# Em

Love love love

G D/F# Em

Love love love

D7/A G D7/A

Love love love

(Then play something along the lines of this)

E----------------------------------------------------------

B----------------------------------------------------------

G----------------------------------------------------------

D--0-------------------0----0--2--------------------------

A-------3-----2---3----------------------------------------

E------------------------------------------------------------

G D/F# Em

There's nothing you can do that can't be done

G D/F# Em

Theres nothing you can sing that can't be sung

D7/A G D/F#

Nothing you can say but you can learn to

D7/A

play the game

D7/A D7

It's easy

There's nothing you can make that can't be made

No one you can save that can't be saved

Nothing you can do but you can learn how to be you in time

It's easy

CHORUS:

G A7 D7

All you need is love

G A7 D7

All you need is love

G B7 Em G/D

All you need is love love

C D7 G

Love is all you need

There's nothing you can know that isn't known

Nothing you can see that isn't shown

Nowhere you can be that isn't where you're meant to be

Its easy

CHORUS

C D7 G

Love is all you need

G A7 D7

All you need is love

D7 G A7 D7

All together now All you need is love

D7 G A7 D7

Everybody now All you need is love

G D G

Love is all you need (repeats a few times)

(Then John starts going "Oh yeah - loves you yeah yeah

yeah - she loves you yeah yeah yeah").

Chords used:

A7 x02020

B7 x21202

C x32010

D xx0232

D/F# xx4232

D7 xx0212

D7/A x00212

Em 022000

G 320033

G/D xx0033