Tabs: The Beatles "Birthday"

USER-SUBMITTED TAB

Below is a user-submitted guitar tablature for the song "Birthday" by The Beatles, one of several user-submitted tabs to be found on GuitarWorld.com. Please note that the tablature on this page is not an official tab. For official tabs, be sure to visit http://www.halleonard.com/

Artist: The Beatles

Song: "Birthday”

Intro and verse riff.

3/8 means slide from fret 3 to fret 8

E----------------------------------------------------------------------

B-----------2----3----3/8----7---5----------------------------------

G--2---2------------------------------2------------------------------

D--------------------------------------------------------------------

A--------------------------------------------------------------------

E--------------------------------------------------------------------

E-------------------------------------------------------------------

B------------2----3----3/8----7---5-------------------------------

G--2---2--------------------------------2--------------------------

D-------------------------------------------------------------------

A-------------------------------------------------------------------

E-------------------------------------------------------------------

E------------------5---5/8----7----5-------------------------------

B-------------6------------------------------------------------------

G--7----7-------------------------------7---------------------------

D--------------------------------------------------------------------

A-------------------------------------------------------------------

E--------------------------------------------------------------------

E------------------------------------------------------------------

B---------------2----3----3/8----7----5-------------------------

G---2----2-----------------------------------2-------------------

D------------------------------------------------------------------

A------------------------------------------------------------------

E------------------------------------------------------------------

E--------------------7----7/10----9----7---------------------------

B-------------9------------------------------------------------------

G---9---9------------------------------------7----------------------

D--------------------------------------------------------------------

A--------------------------------------------------------------------

E---------------------------------------------------------------------

E---------------------------------------------------------------------

B--------------2----3----3/8----7----5-----------------------------

G---2----2----------------------------------2-----------------------

D--------------------------------------------------------------------

A--------------------------------------------------------------------

E--------------------------------------------------------------------

A

You say it's your birthday

A

It's my birthday too yeah

D

They say it's your birthday

A

We're gonna have a good time

E

I'm glad it's your birthday

A

Happy birthday to you

E

Yes we're going to a party party

E

Yes we're going to a party party

E

Yes we're going to a party party

C G

I would like you to dance

C G

(Birthday) Take a cha - cha -cha chance

C G

(Birthday) I would like you to dance

C G

(Birthday) Dance

E

instrumental

A

You say it's your birthday

A

It's my birthday too yeah

D

They say it's your birthday

A

We're gonna have a good time

E

I'm glad it's your birthday

A

Happy birthday to you

(Fades out with the riff)