Tabs: The Beatles "All My Loving"

USER-SUBMITTED TAB

Below is a user-submitted guitar tablature for the song "All My Loving" by The Beatles, one of several user-submitted tabs to be found on GuitarWorld.com.

Please note that the tablature on this page is not an official tab. For official tabs, be sure to visit http://www.halleonard.com/

Artist: The Beatles

Song: "All My Love”

Album: With The Beatles

Close your

eyes

F#m B

e|2-2-2- 2-2-2- 2-2-2- 2---2-|2-2-2- 2-2-2- 2-2-2- 2-----|

B|2-2-2--2-2-2--2-2-2--2---2-|4-4-4--4-4-4--4-4-4--4-----|

G|2-2-2--2-2-2--2-2-2--2---2-|4-4-4--4-4-4--4-4-4--4-----|

D|4-4-4--4-4-4--4-4-4--4---4-|4-4-4--4-4-4--4-4-4--4-----|

A|4-4-4--4-4-4--4-4-4--4---4-|2-2-2--2-2-2--2-2-2--2-----|

E|2-2-2--2-2-2--2-2-2--2---2-|---------------------------|

and I'll kiss you tomorrow

E C#m

e|4-4-4- 4-4-4- 4-4-4- 4-4-4-|4-4-4- 4-4-4- 4-4-4- 4-----|

B|5-5-5--5-5-5--5-5-5--5-5-5-|5-5-5--5-5-5--5-5-5--5-----|

G|4-4-4--4-4-4--4-4-4--4-4-4-|6-6-6--6-6-6--6-6-6--6-----|

D|6-6-6--6-6-6--6-6-6--6-6-6-|6-6-6--6-6-6--6-6-6--6-----|

A|7-7-7--7-7-7--7-7-7--7-7-7-|4-4-4--4-4-4--4-4-4--4-----|

E|---------------------------|---------------------------|

I'll miss Remember

you

A F#m

e|5-5-5- 5-5-5- 5-5-5- 5-5-5-|2-2-2- 2-2-2- 2-2-2- 2-----|

B|5-5-5--5-5-5--5-5-5--5-5-5-|2-2-2--2-2-2--2-2-2--2-----|

G|6-6-6--6-6-6--6-6-6--6-6-6-|2-2-2--2-2-2--2-2-2--2-----|

D|7-7-7--7-7-7--7-7-7--7-7-7-|4-4-4--4-4-4--4-4-4--4-----|

A|7-7-7--7-7-7--7-7-7--7-7-7-|4-4-4--4-4-4--4-4-4--4-----|

E|5-5-5--5-5-5--5-5-5--5-5-5-|2-2-2--2-2-2--2-2-2--2-----|

I'll always be

D B7

e|2-2-2- 2-2-2- 2-2-2- 2-2-0-|2-2-2- 2-2-2- 2-2-2- 2-2---|

B|3-3-3--3-3-3--3-3-3--3-3-0-|0-0-0--0-0-0--0-0-0--0-0---|

G|2-2-2--2-2-2--2-2-2--2-2-0-|2-2-2--2-2-2--2-2-2--2-2---|

D|0-0-0--0-0-0--0-0-0--0-0-0-|1-1-1--1-1-1--1-1-1--1-1---|

A|---------------------------|2-2-2--2-2-2--2-2-2--2-2---|

E|---------------------------|---------------------------|

true And then

00:13

F#m B

e|2-2-2- 2-2-2- 2-2-2- 2-2-2-|2-2-2- 2-2-2- 2-2-2- 2-2-2-|

B|2-2-2--2-2-2--2-2-2--2-2-2-|4-4-4--4-4-4--4-4-4--4-4-4-|

G|2-2-2--2-2-2--2-2-2--2-2-2-|4-4-4--4-4-4--4-4-4--4-4-4-|

D|4-4-4--4-4-4--4-4-4--4-4-4-|4-4-4--4-4-4--4-4-4--4-4-4-|

A|4-4-4--4-4-4--4-4-4--4-4-4-|2-2-2--2-2-2--2-2-2--2-2-2-|

E|2-2-2--2-2-2--2-2-2--2-2-2-|---------------------------|

while I'm away, I'll write

E C#m

e|4-4-4- 4-4-4- 4-4-4- 4-4---|4-4-4- 4-4-4- 4-4-4- 4-----|

B|5-5-5--5-5-5--5-5-5--5-5---|5-5-5--5-5-5--5-5-5--5-----|

G|4-4-4--4-4-4--4-4-4--4-4---|6-6-6--6-6-6--6-6-6--6-----|

D|6-6-6--6-6-6--6-6-6--6-6---|6-6-6--6-6-6--6-6-6--6-----|

A|7-7-7--7-7-7--7-7-7--7-7---|4-4-4--4-4-4--4-4-4--4-----|

E|---------------------------|---------------------------|

home ev'ry day, And

I'll

A B

e|5-5-5- 5-5-5- 5-5-5- 5-5-5-|7-7-7- 7-7-7- 7-7-7- 7-7---|

B|5-5-5--5-5-5--5-5-5--5-5-5-|7-7-7--7-7-7--7-7-7--7-7---|

G|6-6-6--6-6-6--6-6-6--6-6-6-|8-8-8--8-8-8--8-8-8--8-8---|

D|7-7-7--7-7-7--7-7-7--7-7-7-|9-9-9--9-9-9--9-9-9--9-9---|

A|7-7-7--7-7-7--7-7-7--7-7-7-|9-9-9--9-9-9--9-9-9--9-9---|

E|5-5-5--5-5-5--5-5-5--5-5-5-|7-7-7--7-7-7--7-7-7--7-7---|

send all my loving to you.

E

e|4-4-4- 4-4-4- 4-4-4- 4-4-4-|4----- ------ ------ ------|

B|5-5-5--5-5-5--5-5-5--5-5-5-|5--------------------------|

G|4-4-4--4-4-4--4-4-4--4-4-4-|4--------------------------|

D|6-6-6--6-6-6--6-6-6--6-6-6-|6--------------------------|

A|7-7-7--7-7-7--7-7-7--7-7-7-|6--------------------------|

E|---------------------------|---------------------------|

I'll pretend

00:25

F#m B

e|2-2-2- 2-2-2- 2-2-2- 2-2-2-|2-2-2- 2-2-2- 2-2-2- 2-----|

B|2-2-2--2-2-2--2-2-2--2-2-2-|4-4-4--4-4-4--4-4-4--4-----|

G|2-2-2--2-2-2--2-2-2--2-2-2-|4-4-4--4-4-4--4-4-4--4-----|

D|4-4-4--4-4-4--4-4-4--4-4-4-|4-4-4--4-4-4--4-4-4--4-----|

A|4-4-4--4-4-4--4-4-4--4-4-4-|2-2-2--2-2-2--2-2-2--2-----|

E|2-2-2--2-2-2--2-2-2--2-2-2-|---------------------------|

That kissing the

I'm

E C#m

e|4-4-4- 4-4-4- 4-4-4- 4---4-|4-4-4- 4-4-4- 4-4-4- 4---4-|

B|5-5-5--5-5-5--5-5-5--5---5-|5-5-5--5-5-5--5-5-5--5---5-|

G|4-4-4--4-4-4--4-4-4--4---4-|6-6-6--6-6-6--6-6-6--6---6-|

D|6-6-6--6-6-6--6-6-6--6---6-|6-6-6--6-6-6--6-6-6--6---6-|

A|7-7-7--7-7-7--7-7-7--7---7-|4-4-4--4-4-4--4-4-4--4---4-|

E|---------------------------|---------------------------|

lips I am missing And

A F#m

e|5-5-5- 5-5-5- 5-5-5- 5-----|2-2-2- 2-2-2- 2-2-2- 2-2-2-|

B|5-5-5--5-5-5--5-5-5--5-----|2-2-2--2-2-2--2-2-2--2-2-2-|

G|6-6-6--6-6-6--6-6-6--6-----|2-2-2--2-2-2--2-2-2--2-2-2-|

D|7-7-7--7-7-7--7-7-7--7-----|4-4-4--4-4-4--4-4-4--4-4-4-|

A|7-7-7--7-7-7--7-7-7--7-----|4-4-4--4-4-4--4-4-4--4-4-4-|

E|5-5-5--5-5-5--5-5-5--5-----|2-2-2--2-2-2--2-2-2--2-2-2-|

hope that dreams will come

my

D B7

e|2-2-2- 2-2-2- 2-2-2- 2-2-0-|2-2-2- 2---2- 2-2-2- 2-2-2-|

B|3-3-3--3-3-3--3-3-3--3-3-0-|0-0-0--0---0--0-0-0--0-0-0-|

G|2-2-2--2-2-2--2-2-2--2-2-0-|2-2-2--2---2--2-2-2--2-2-2-|

D|0-0-0--0-0-0--0-0-0--0-0-0-|1-1-1--1---1--1-1-1--1-1-1-|

A|---------------------------|2-2-2--2---2--2-2-2--2-2-2-|

E|---------------------------|---------------------------|

true And then

00:37

F#m B

e|2-2-2- 2-2-2- 2-2-2- 2---2-|2-2-2- 2-2-2- 2-2-2- 2-----|

B|2-2-2--2-2-2--2-2-2--2---2-|4-4-4--4-4-4--4-4-4--4-----|

G|2-2-2--2-2-2--2-2-2--2---2-|4-4-4--4-4-4--4-4-4--4-----|

D|4-4-4--4-4-4--4-4-4--4---4-|4-4-4--4-4-4--4-4-4--4-----|

A|4-4-4--4-4-4--4-4-4--4---4-|2-2-2--2-2-2--2-2-2--2-----|

E|2-2-2--2-2-2--2-2-2--2---2-|---------------------------|

while I'm away, I'll write

E C#m

e|4-4-4- 4-4-4- 4-4-4- 4-----|4-4-4- 4-4-4- 4-4-4- 4-----|

B|5-5-5--5-5-5--5-5-5--5-----|5-5-5--5-5-5--5-5-5--5-----|

G|4-4-4--4-4-4--4-4-4--4-----|6-6-6--6-6-6--6-6-6--6-----|

D|6-6-6--6-6-6--6-6-6--6-----|6-6-6--6-6-6--6-6-6--6-----|

A|7-7-7--7-7-7--7-7-7--7-----|4-4-4--4-4-4--4-4-4--4-----|

E|---------------------------|---------------------------|

home ev'ry day, And I'll

A B

e|5-5-5- 5---5- 5-5-5- 5-5-5-|7-7-7- 7-7-7- 7-7-7- 7-7---|

B|5-5-5--5---5--5-5-5--5-5-5-|7-7-7--7-7-7--7-7-7--7-7---|

G|6-6-6--6---6--6-6-6--6-6-6-|8-8-8--8-8-8--8-8-8--8-8---|

D|7-7-7--7---7--7-7-7--7-7-7-|9-9-9--9-9-9--9-9-9--9-9---|

A|7-7-7--7---7--7-7-7--7-7-7-|9-9-9--9-9-9--9-9-9--9-9---|

E|5-5-5--5---5--5-5-5--5-5-5-|7-7-7--7-7-7--7-7-7--7-7---|

send all my loving to you.

E

e|4-4-4- 4-4-4- 4-4-4- 4-4-4-|4----- ------ ------ ------|

B|5-5-5--5-5-5--5-5-5--5-5-5-|5--------------------------|

G|4-4-4--4-4-4--4-4-4--4-4-4-|4--------------------------|

D|6-6-6--6-6-6--6-6-6--6-6-6-|6--------------------------|

A|7-7-7--7-7-7--7-7-7--7-7-7-|6--------------------------|

E|---------------------------|---------------------------|

All my

00:50

C#m C#mmaj7

e|------ 4----- ---4-- ------|------ 4----- ---4-- ------|

B|-------5---------5---------|-------5---------5---------|

G|-------6---------6---------|-------5---------5---------|

D|-------6---------6---------|-------6---------6---------|

A|-------4---------4---------|-------4---------4---------|

E|---------------------------|---------------------------|

loving I will send to you

E

e|------ 4----- ---4-- ------|------ 4----- ---4-- ------|

B|-------5---------5---------|-------5---------5---------|

G|-------4---------4---------|-------4---------4---------|

D|-------6---------6---------|-------6---------6---------|

A|-------7---------7---------|-------7---------7---------|

E|---------------------------|---------------------------|

All my

00:56

C#m C#mmaj7

e|------ 4----- ---4-- ------|------ 4----- ---4-- ------|

B|-------5---------5---------|-------5---------5---------|

G|-------6---------6---------|-------5---------5---------|

D|-------6---------6---------|-------6---------6---------|

A|-------4---------4---------|-------4---------4---------|

E|---------------------------|---------------------------|

loving, darling I'll be true

SOLO

E

e|------ 4----- ---4-- ------|4----- ------ ------ ------|

B|-------5---------5---------|5--------------------------|

G|-------4---------4---------|4--------------------------|

D|-------6---------6---------|6--------------------------|

A|-------7---------7---------|7--------------------------|

E|---------------------------|---------------------------|

e|------ ------ ------ ------|------ ------ ------ ------|

B|---------------------------|---------------------------|

G|---------------------------|---------------------------|

D|---------------------------|---------------------------|

A|---------------------------|----2----------------------|

E|---------------------------|-------0------2------4-----|

01:02

A7

e|------ 5----- ------ ------|------ 5----- ------ 5-----|

B|-------8-------------------|-------8-------------8-----|

G|-------6-------------------|-------6-------------6-----|

D|-------5-------------------|-------5-------------5-----|

A|-------7-------------------|-------7-------------7-----|

E|-------5-------------------|-------5-------------5-----|

e|------ 5----- ------ ------|9----- ----7- ------ 5-----|

B|-------7----------5--------|---------------------------|

G|-------6-------------------|9----------8------6--------|

D|------------------7--------|---------------------------|

A|0--------------------------|---------------------------|

E|---------------------------|---------------------------|

E

e|------ 0----- 0---0- 0---0-|------ 0---0- ----0- 0---0-|

B|-------0------0---0--0---0-|-------0---0------0--0---0-|

G|-------1------1---1--1---1-|-------1---1------1--1---1-|

D|-------2------2---2--2---2-|-------2---2------2--2---2-|

A|-------2------2---2--2---2-|-------2---2------2--2---2-|

E|-------0------0---0--0---0-|-------0---0------0--0---0-|

e|4----- ------ ------ ------|7----- ---5-- ------ ------|

B|-----------5---------------|------------------9--------|

G|4--------------------------|9---------6----------------|

D|-------6-------------------|------------------9--------|

A|---------------------------|---------------------------|

E|---------------------------|---------------------------|

01:08

F#m

e|------ 2----- ----2- ------|------ 2----- ----2- 2-----|

B|-------2----------2--------|-------2----------2--2-----|

G|-------2----------2--------|-------2----------2--2-----|

D|-------4----------4--------|-------4----------4--4-----|

A|-------4----------4--------|-------4----------4--4-----|

E|-------2----------2--------|-------2----------2--2-----|

e|------ ------ ------ ------|-9---- ------ ----9- ------|

B|7--------------------------|-----------10--------------|

G|-----------6---------------|11---------------11--------|

D|7------4-------------------|-----------11--------------|

A|---------------------------|---------------------------|

E|---------------------------|---------------------------|

E

e|------ 0----- 0-0-0- 0-0-0-|0----- ------ ------ ------|

B|-------0------0-0-0--0-0-0-|0--------------------------|

G|-------1------1-1-1--1-1-1-|1--------------------------|

D|-------2------2-2-2--2-2-2-|2--------------------------|

A|-------2------2-2-2--2-2-2-|2--------------------------|

E|-------0------0-0-0--0-0-0-|0--------------------------|

e|0----- ------ ----0- ------|------ ------ ------ ------|

B|------------------0------0-|---------------------------|

G|1-------------0-1----0-1---|---------------------------|

D|---------------------------|2--------------------------|

A|---------------------------|---------------------------|

E|---------------------------|---------------------------|

Close your

eyes

01:14

F#m B

e|2-2-2- 2-2-2- 2-2-2- 2-2-2-|2-2-2- 2-2-2- 2-2-2- 2---2-|

B|2-2-2--2-2-2--2-2-2--2-2-2-|4-4-4--4-4-4--4-4-4--4---4-|

G|2-2-2--2-2-2--2-2-2--2-2-2-|4-4-4--4-4-4--4-4-4--4---4-|

D|4-4-4--4-4-4--4-4-4--4-4-4-|4-4-4--4-4-4--4-4-4--4---4-|

A|4-4-4--4-4-4--4-4-4--4-4-4-|2-2-2--2-2-2--2-2-2--2---2-|

E|2-2-2--2-2-2--2-2-2--2-2-2-|---------------------------|

and I'll kiss tomorrow

you

E C#m

e|4-4-4- 4-4-4- 4-4-4- 4-4---|4-4-4- 4-4-4- 4-4-4- 4-4---|

B|5-5-5--5-5-5--5-5-5--5-5---|5-5-5--5-5-5--5-5-5--5-5---|

G|4-4-4--4-4-4--4-4-4--4-4---|6-6-6--6-6-6--6-6-6--6-6---|

D|6-6-6--6-6-6--6-6-6--6-6---|6-6-6--6-6-6--6-6-6--6-6---|

A|7-7-7--7-7-7--7-7-7--7-7---|4-4-4--4-4-4--4-4-4--4-4---|

E|---------------------------|---------------------------|

I'll miss Remember

you

A F#m

e|5-5-5- 5-5-5- 5-5-5- 5-5---|2-2-2- 2-2-2- 2-2-2- 2-2-2-|

B|5-5-5--5-5-5--5-5-5--5-5---|2-2-2--2-2-2--2-2-2--2-2-2-|

G|6-6-6--6-6-6--6-6-6--6-6---|2-2-2--2-2-2--2-2-2--2-2-2-|

D|7-7-7--7-7-7--7-7-7--7-7---|4-4-4--4-4-4--4-4-4--4-4-4-|

A|7-7-7--7-7-7--7-7-7--7-7---|4-4-4--4-4-4--4-4-4--4-4-4-|

E|5-5-5--5-5-5--5-5-5--5-5---|2-2-2--2-2-2--2-2-2--2-2-2-|

I'll always be

D B7

e|2-2-2- 2-2-2- 2-2-2- 2---0-|2-2-2- 2-2-2- 2-2-2- 2-----|

B|3-3-3--3-3-3--3-3-3--3---0-|0-0-0--0-0-0--0-0-0--0-----|

G|2-2-2--2-2-2--2-2-2--2---0-|2-2-2--2-2-2--2-2-2--2-----|

D|0-0-0--0-0-0--0-0-0--0---0-|1-1-1--1-1-1--1-1-1--1-----|

A|---------------------------|2-2-2--2-2-2--2-2-2--2-----|

E|---------------------------|---------------------------|

true And then

01:27

F#m B

e|2-2-2- 2-2-2- 2-2-2- 2-2---|2-2-2- 2-2-2- 2-2-2- 2-2---|

B|2-2-2--2-2-2--2-2-2--2-2---|4-4-4--4-4-4--4-4-4--4-4---|

G|2-2-2--2-2-2--2-2-2--2-2---|4-4-4--4-4-4--4-4-4--4-4---|

D|4-4-4--4-4-4--4-4-4--4-4---|4-4-4--4-4-4--4-4-4--4-4---|

A|4-4-4--4-4-4--4-4-4--4-4---|2-2-2--2-2-2--2-2-2--2-2---|

E|2-2-2--2-2-2--2-2-2--2-2---|---------------------------|

while I'm away, I'll write

E C#m

e|4-4-4- 4-4-4- 4-4-4- 4---4-|4-4-4- 4-4-4- 4-4-4- 4-----|

B|5-5-5--5-5-5--5-5-5--5---5-|5-5-5--5-5-5--5-5-5--5-----|

G|4-4-4--4-4-4--4-4-4--4---4-|6-6-6--6-6-6--6-6-6--6-----|

D|6-6-6--6-6-6--6-6-6--6---6-|6-6-6--6-6-6--6-6-6--6-----|

A|7-7-7--7-7-7--7-7-7--7---7-|4-4-4--4-4-4--4-4-4--4-----|

E|---------------------------|---------------------------|

home ev'ry day, And

I'll

A B

e|5-5-5- 5-5-5- 5-5-5- 5-5---|7-7-7- 7-7-7- 7-7-7- 7-7---|

B|5-5-5--5-5-5--5-5-5--5-5---|7-7-7--7-7-7--7-7-7--7-7---|

G|6-6-6--6-6-6--6-6-6--6-6---|8-8-8--8-8-8--8-8-8--8-8---|

D|7-7-7--7-7-7--7-7-7--7-7---|9-9-9--9-9-9--9-9-9--9-9---|

A|7-7-7--7-7-7--7-7-7--7-7---|9-9-9--9-9-9--9-9-9--9-9---|

E|5-5-5--5-5-5--5-5-5--5-5---|7-7-7--7-7-7--7-7-7--7-7---|

send all my loving to you.

E

e|4-4-4- 4-4-4- 4-4-4- 4-4-4-|4----- ------ ------ ------|

B|5-5-5--5-5-5--5-5-5--5-5-5-|5--------------------------|

G|4-4-4--4-4-4--4-4-4--4-4-4-|4--------------------------|

D|6-6-6--6-6-6--6-6-6--6-6-6-|6--------------------------|

A|7-7-7--7-7-7--7-7-7--7-7-7-|7--------------------------|

E|---------------------------|---------------------------|

All my

01:39

C#m C#mmaj7

e|------ 4----- ---4-- ------|------ 4----- ---4-- ------|

B|-------5---------5---------|-------5---------5---------|

G|-------6---------6---------|-------5---------5---------|

D|-------6---------6---------|-------6---------6---------|

A|-------4---------4---------|-------4---------4---------|

E|---------------------------|---------------------------|

loving I will send to you

E

e|------ 4----- ---4-- ------|------ 4----- ---4-- ------|

B|-------5---------5---------|-------5---------5---------|

G|-------4---------4---------|-------4---------4---------|

D|-------6---------6---------|-------6---------6---------|

A|-------7---------7---------|-------7---------7---------|

E|---------------------------|---------------------------|

All my

C#m C#mmaj7

e|------ 4----- ---4-- ------|------ 4----- ---4-- ------|

B|-------5---------5---------|-------5---------5---------|

G|-------6---------6---------|-------5---------5---------|

D|-------6---------6---------|-------6---------6---------|

A|-------4---------4---------|-------4---------4---------|

E|---------------------------|---------------------------|

loving, darling I'll be true

E

e|------ 4----- ---4-- ------|----4- 4----- ---4-- ----4-|

B|-------5---------5---------|----5--5---------5-------5-|

G|-------4---------4---------|----4--4---------4-------4-|

D|-------6---------6---------|----6--6---------6-------6-|

A|-------7---------7---------|----7--7---------7-------7-|

E|---------------------------|---------------------------|

All my

01:52

C#m

e|------ 4----- 4---4- ------|4----- ----4- ------ 4-----|

B|-------5------5---5--------|5----------5---------5-----|

G|-------6------6---6--------|5----------5---------5-----|

D|-------6------6---6--------|6----------6---------6-----|

A|-------4------4---4--------|4----------4---------4-----|

E|---------------------------|---------------------------|

loving All

E

e|------ 4----- ----4- ------|4----- ----4- ------ 4-----|

B|-------5----------5--------|5----------5---------5-----|

G|-------4----------4--------|4----------4---------4-----|

D|-------6----------6--------|6----------6---------6-----|

A|-------7----------7--------|7----------7---------7-----|

E|---------------------------|---------------------------|

my loving Ooooh All my

01:58

C#m

e|------ 4----- ----4- ------|4----- ----4- ------ 4-----|

B|-------5----------5--------|5----------5---------5-----|

G|-------6----------6--------|5----------5---------5-----|

D|-------6----------6--------|6----------6---------6-----|

A|-------4----------4--------|4----------4---------4-----|

E|---------------------------|---------------------------|

loving I will to

send

(.

E E5

e|------ 0----- ----0- ------|0----- ------ ------ ------|

B|-------0----------0--------|0--------------------------|

G|-------1----------1--------|x--------------------------|

D|-------2----------2--------|2--------------------------|

A|-------2----------2--------|2--------------------------|

E|-------0----------0--------|0--------------------------|

you

B Bend

R Release

/ slide up

\ slide down

H hammer-on

P pull-off

~ vibrato

+ harmonic

x Mute note

. - play note like a dot in standard notation

^ - ties two notes together

(. Pause