Bass Tabs: The Beatles "And I Love Her"

USER-SUBMITTED TAB

Below is a user-submitted guitar tablature for the song "And I Love Her" by The Beatles, one of several user-submitted tabs to be found on GuitarWorld.com. Please note that the tablature on this page is not an official tab.

For official tabs, be sure to visit http://www.halleonard.com/

Artist: The Beatles

Song: "And I Love Her”

Intro:

G|------- ------- ------- -------|------- ------- ------- -------|

D|-------------------------------|-------------------------------|

A|-------------------------------|-------------------------------|

E|-------------------------------|------------------------------|

G|------- ------- ------- -------|------- ------- ------- -------|

D|4-----------4---4--------------|4-----------4---4--------------|

A|-------------------------------|-------------------------------|

E|-------------------------------|-------------------------------|

G|------- ------- ------- -------|------- ------- ------- -------|

D|2-----------2---2--------------|2-----------2---2--------------|

A|-------------------------------|-------------------------------|

E|-------------------------------|-------------------------------|

Verse:

G|------- ------- ------- -------|------- ------- ------- -------|

D|4-----------4---4--------------|-------------------------------|

A|-------------------------------|4-----------4---4-------4------|

E|-------------------------------|-------------------------------|

I give her all my love,

G|------- ------- ------- -------|------- ------- ------- -------|

D|4-----------4---4--------------|-------------------------------|

A|-------------------------------|4-----------4---4--------------|

E|-------------------------------|-------------------------------|

that's all I do,

G|------- ------- ------- -------|------- ------- ------- -------|

D|4-----------4---4--------------|-------------------------------|

A|-------------------------------|4-----------4---4--------------|

E|-------------------------------|-------------------------------|

And if you saw my love,

G|------- ------- ------- -------|------- ------- ------- -------|

D|7------------------------------|-------------------------------|

A|------------4-----------7------|------------6-----------9------|

E|-------------------------------|7------------------------------|

you'd love her too, I love

G|------- ------- ------- -------|------- ------- ------- -------|

D|------------9------------------|------------9------------------|

A|7---------------------------6--|7-----------------------7------|

E|------------------------7------|-------------------------------|

her

Verse:

G|------- ------- ------- -------|------- ------- ------- -------|

D|4-----------4---4--------------|-------------------------------|

A|-------------------------------|4-----------4---4--------------|

E|-------------------------------|-------------------------------|

She gives me every - thing,

G|------- ------- ------- -------|------- ------- ------- -------|

D|4-----------4---4--------------|-------------------------------|

A|-------------------------------|4-----------4---4--------------|

E|-------------------------------|-------------------------------|

and tender - ly,

G|------- ------- ------- -------|------- ------- ------- -------|

D|4-----------4---4--------------|-------------------------------|

A|-------------------------------|4-----------4---4--------------|

E|-------------------------------|-------------------------------|

The kiss my lo- ver brings,

G|------- ------- ------- -------|------- ------- ------- -------|

D|7------------------------------|-------------------------------|

A|------------4-----------7------|------------6-----------9------|

E|-------------------------------|7------------------------------|

she brings to me, and I love

G|------- ------- ------- -------|------- ------- ------- -------|

D|------------9------------------|------------9------------------|

A|7---------------------------6--|7-----------------------7---6--|

E|------------------------7------|--------------------7----------|

her

Bridge:

G|------- ------- ------- -------|------- ------- ------- -------|

D|-------------------------------|-------------------------------|

A|4-----------4-----------4------|-------------------------------|

E|-------------------------------|7-----------7-----------7------|

A love like ours

G|------- ------- ------- -------|------- ------- ------- -------|

D|-------------------------------|-------------------------------|

A|4-----------4-----------4------|-------------------------------|

E|-------------------------------|4-----------4-----------4------|

could ne- ver die,

G|------- ------- ------- -------|------- ------- ------- -------|

D|-------------------------------|-------------------------------|

A|4-----------4-----------4------|-------------------------------|

E|-------------------------------|4-----------4-----------4------|

as long as I have you

G|------- ------- ------- -------|------- ------- ------- -------|

D|-------------------------------|-------------------------------|

A|2-----------2-----------2------|2-----------2-----------2------|

E|-------------------------------|-------------------------------|

near me

Verse:

G|------- ------- ------- -------|------- ------- ------- -------|

D|4-----------4---4--------------|-------------------------------|

A|-------------------------------|4-----------4---4--------------|

E|-------------------------------|-------------------------------|

Bright are the stars that shine,

G|------- ------- ------- -------|------- ------- ------- -------|

D|4-----------4---4--------------|-------------------------------|

A|-------------------------------|4-----------4---4--------------|

E|-------------------------------|-------------------------------|

dark is the sky,

G|------- ------- ------- -------|------- ------- ------- -------|

D|4-----------4---4--------------|-------------------------------|

A|-------------------------------|4-----------4---4--------------|

E|-------------------------------|-------------------------------|

I know this love of mine

G|------- ------- ------- -------|------- ------- ------- -------|

D|7------------------------------|-------------------------------|

A|------------4-----------7------|------------6-----------9------|

E|-------------------------------|7------------------------------|

will ne- ver die, and I love

G|------- ------- ------- -------|------- ------- ------- -------|

D|------------9------------------|------------9------------------|

A|7---------------------------6--|7-----------------------7------|

E|------------------------7------|-------------------------------|

her

Verse (solo):

G|------- ------- ------- -------|------- ------- ------- -------|

D|5-----------5---5--------------|-------------------------------|

A|-------------------------------|5-----------5---5--------------|

E|-------------------------------|-------------------------------|

G|------- ------- ------- -------|------- ------- ------- -------|

D|5-----------5---5--------------|-------------------------------|

A|-------------------------------|5-----------5---5--------------|

E|-------------------------------|-------------------------------|

G|------- ------- ------- -------|------- ------- ------- -------|

D|5-----------5---5--------------|-------------------------------|

A|-------------------------------|5-----------5---5--------------|

E|-------------------------------|-------------------------------|

G|------- ------- ------- -------|------- ------- ------- -------|

D|-------------------------------|------------5---5--------------|

A|------------8------------------|----------------------------7--|

E|6-----------------------6------|8-----------------------8------|

G|------- ----5-- ------- -------|------- ----5-- ------- -------|

D|-------------------------------|------------------------5------|

A|8---------------------------7--|8---------------------------8--|

E|------------------------8------|-------------------------------|

Verse:

G|------- ------- ------- -------|------- ------- ------- -------|

D|5-----------5---5--------------|-------------------------------|

A|-------------------------------|5-----------5---5--------------|

E|-------------------------------|-------------------------------|

Bright are the stars that shine,

G|------- ------- ------- -------|------- ------- ------- -------|

D|5-----------5---5--------------|-------------------------------|

A|-------------------------------|5-----------5---5-------5------|

E|-------------------------------|-------------------------------|

dark is the sky,

G|------- ------- ------- -------|------- ------- ------- -------|

D|5-----------5---5--------------|-------------------------------|

A|-------------------------------|5-----------5---5--------------|

E|-------------------------------|-------------------------------|

I know this love of mine

G|------- ------- ------- -------|------- ------- ------- -------|

D|-------------------------------|-------------------------------|

A|------------5-----------8------|------------7-----------10-----|

E|6------------------------------|8------------------------------|

will ne- ver die, and I love

G|------- ------- ------- -------|------- ------- ------- -------|

D|------------10-----------------|------------10-----------------|

A|8---------------------------7--|8-----------------------8------|

E|------------------------8------|-------------------------------|

her m - m - m

Outro:

G|------- ------- ------- -------|------- ------- ------- -------|

D|5-----------5---5--------------|5-----------5---5--------------|

A|-------------------------------|-------------------------------|

E|-------------------------------|-------------------------------|

G|------- ------- ------- -------|------- ------- ------- -------|

D|3-----------3---3--------------|3-----------3---3--------------|

A|-------------------------------|-------------------------------|

E|-------------------------------|-------------------------------|

G|------- ------- ------- -------|------- ------- ------- -------|

D|5-----------5---5--------------|5-----------5---5--------------|

A|-------------------------------|-------------------------------|

E|-------------------------------|-------------------------------|

G|------- ------- ------- -------|------- ------- ------- -------|

D|-------------------------------|-------------------------------|

A|5------------------------------|-------------------------------|

E|-------------------------------|-------------------------------|