Tabs: The Beatles "Come Together"

USER-SUBMITTED TAB

Below is a user-submitted guitar tablature for the song "Come Together" by The Beatles, one of several user-submitted tabs to be found on GuitarWorld.com.

Please note that the tablature on this page is not an official tab.

For official tabs, be sure to visit http://www.halleonard.com/

Artist: The Beatles

Song: "Come Together"

Album: Abbey Road

INTRO and main riff:

e|-----------------------------|

B|-----------------------------|

G|-----------------------------|

D|----------------------10~----|

A|----------10-h12------12~----|

E|-10--10----------------------|

Shuuuuuu

VERSE

(according to the drums rythm)

D7+9

e|-------------------------------------------|

B|-------------------------------------------|

G|-------------------------------------------|

D|-------------------------------------------| X4

A|--12--12--14--14-----12--12--14--14--------|

E|--10--10--10--10-----10--10--10--10--------|

PM..........................................

and when he says:

hair down..

A

e|--------------------------------------------|

B|--------------------------------------------|

G|--------------------------------------------|

D|--------------------------------------------| X2

A|---7---7---9---9------7---7---9---9---------|

E|---5---5---5---5------5---5---5---5---------|

............................................

G7

e|------------------------------------------------|

B|------------------------------------------------|

G|------------------------------------------------|

D|------------------------------------------------|

A|--5~--------------------------------------------|

E|--3~--------------------------------------------|

GOT TO BE A JOKER HE JUST DO WHAT HE PLEASE

CHORUS

Bm A G A

e--------------------------------------------|

B|-------------------------------------------|

G|--------4-4-4-4-4-4------------------------|

D|--------4-4-4-4-4-4-2-2--------------------|

A|--------2-2-2-2-2-2-0-0--5-5-5-5--7--------|

E|-------------------------3-3-3-3--5--------|

COME TOGHETEEER RIGHT NOW OVER ME

During the organ solo:

FIRST SOLO:

e|------------------------------------|

B|------------------------------------|

G|-11-11-11-11-11-11-11-11------------|x4

D|-------------------------12--10--12-|

A|------------------------------------|

E|------------------------------------|

e|-17b~--17b-17b17p15-I-17b~------------|-17b~-17b-17b17p15-|

B|--------------------I-----------------|-------------------|

G|--------------------I-----------------|-------------------|

D|--------------------I-----------------|-------------------|

A|--------------------I-----------------|-------------------|

E|--------------------I-----------------|-------------------|

e|--------------------I--17b~---------------|

B|-17b~--17b-17b17p15-I---------------------|

G|--------------------I---------------------|

D|--------------------I---------------------|

A|--------------------I---------------------|

E|--------------------I---------------------|

SECOND SOLO

e|--------------------I--15b-15b15p12-------|

B|-15b~---------------I-----------------15b~|

G|--------------------I---------------------|

D|--------------------I---------------------|

A|--------------------I---------------------|

E|--------------------I---------------------|

e|---------------------|-12--15b15p12-------I

B|----------------15b~-|---------------15b~-I

G|-12--14b14p12--------|--------------------I

D|---------------------|--------------------I

A|---------------------|--------------------I

E|---------------------|--------------------I

e|----------------17b~-I-17b-17b17p15--17b~-|

B|-12--15b15p12--------I--------------------|

G|---------------------I--------------------|

D|---------------------I--------------------|

A|---------------------I--------------------|

E|---------------------I--------------------|

e|-17--21b21p17---21b~-I-17--21b21p17---21b~|

B|---------------------I--------------------|

G|---------------------I--------------------|

D|---------------------I--------------------|

A|---------------------I--------------------|

E|---------------------I--------------------|

e|-15--17b17p15---17b~-I--------------------|

B|---------------------I----------------15b~|

G|---------------------I-12--14b14p12-------|

D|---------------------I--------------------|

A|---------------------I--------------------|

E|---------------------I--------------------|

e|-15b-17b17p15--------I-15b--17b17p15------|

B|----------------15b~-I----------------15b~|

G|---------------------I--------------------|

D|---------------------I--------------------|

A|---------------------I--------------------|

E|---------------------I--------------------|