Tabs: Avenged Sevenfold "Natural Born Killer"

avatar

Tabs: Avenged Sevenfold "Natural Born Killer"

 

USER-SUBMITTED TAB

Below is a user-submitted guitar tablature for the song "Natural Born Killer" by Avenged Sevenfold, one of several user-submitted tabs to be found on GuitarWorld.com.

Please note that this is not an official Guitar World tab. For official tabs, visit the Hal Leonard website.

Artist: Avenged Sevenfold

Song: "Natural Born Killer"

Album: Nightmare

 

Intro

e|--------------------------------------------------------------------------|
B|--------------------------------------------------------------------------|
G|--------------------------------------------------------------------------|
D|--------------------------------------------------------------------------|
A|-----------------------------------------------------8-/-11---------------|
D|--0-0-0-0-12-0-0-0-11-0-0-0-12-0-0-0-8-0-0-0-7-0-0-0-8-/-11---------------|   x8



e|-----------------------Synyster Gates goes rad about here-----------------|
B|--------------------------------------------------------------------------|
G|--------------------------------------------------------------------------|
D|--------------------------------------------------------------------------|
A|--------------------------------------------------------------------------|
D|-1-1-1-1-1-1-1-1-1-1-1-1-1-1-1-1-1-1-1-1-1-1-1-1-1-1-1-1-1-1-1-1-----PING-|



Main Riff

e|--------------------------------------------------------------------------|
B|--------------------------------------------------------------------------|
G|--------------------------------------------------------------------------|
D|--------------------------------------------------------------------------|
A|--0-----------------------------------------------------------------------|
D|--0--0-0-0-0-3p0-5p0-7p0-6p0-5p0-3p0-0-0-0-0-0-0-0-0-0000000000000000-----| x2



Verse

e|------------------------------------------------------------------------|
B|------------------------------------------------------------------------|
G|------------------------------------------------------------------------|
D|------------------------3-/-6-------------------------------------------|
A|--0---------------------1-/-4-------------------------------------------|
D|--0--0-0-0-0-0-0-0-0-0-0------------------------------------------------| x2



e|--------------------------------------------------------------------------|
B|--------------------------------------------------------------------------|
G|--------------------------------------------------------------------------|
D|--------------------------------------------------------------------------|
A|--0-----------------------------------------------------------------------|
D|--0-0-0-0-0-0-0-0-0-0-0-0-0-0-0-0-5p0-7p0-8p0-7p0-5p0-7p0-5p0-7p0---------|



e|--------------------------------------------------------------------------|
B|--------------------------------------------------------------------------|
G|--------------------------------------------------------------------------|
D|--8----8----8--8----8----8--8----8----8--88888888-/-10--------------------|
A|--6----6----6--6----6----6--6----6----6--66666666-/-8---------------------|
D|--------------------------------------------------------------------------|



e|--------------------------------------------------------------------------|
B|--------------------------------------------------------------------------|
G|--------------------------------------------------------------------------|
D|--------------------------------------------------------------------------|
A|--0-----------------------------------------------------------------------|
D|--0--0-0-0-0-3p0-5p0-7p0-6p0-5p0-3p0-0-0-0-0-0-0-0-0-0000000000000000-----|



e|--------------------------------------------------------------------------|
B|--------------------------------------------------------------------------|
G|--------------------------------------------------------------------------|
D|--8----8----8--8----8----8--8----8----8--88888888-/-10--------------------|
A|--6----6----6--6----6----6--6----6----6--66666666-/-8---------------------|
D|--------------------------------------------------------------------------|



e|-------------------------------------------------------------------------|
B|-------------------------------------------------------------------------|
G|-------------------------------------------------------------------------|
D|-------------------------------------------------------------------------|
A|--0----------------------------------------------------------------------|
D|--0--0-0-0-0-3p0-5p0-7p0-6p0-5p0-3p0-0-0-0-0-0-0-0-0-0000000000000000----|



bridge
e|--------------------------------------------------------------------------|
B|--------------------------------------------------------------------------|
G|-10~~~~~~~~--7~~~~~~~~--10~~~~~~~--7~~~~~~~~--12~~~-13~~~-----------------|
D|-10~~~~~~~~--7~~~~~~~~--10~~~~~~~--7~~~~~~~~--12~~~-13~~~-----------------|
A|--8~~~~~~~~--5~~~~~~~~--8~~~~~~~~--5~~~~~~~~--10~~~-11~~~-----------------|
D|--8~~~~~~~~--5~~~~~~~~--8~~~~~~~~--5~~~~~~~~--10~~~-11~~~-----------------|


ref.
e|------------------------------------------------------------------------|
B|------------------------------------------------------------------------|
G|--7--7--7-7--9--9--9-9--10-10-1010-7--7--7-7----------------------------|
D|--7--7--7-7--7--7--7-7--8--8--8-8--5--5--5-5----------------------------|
A|--5--5--5-5--7--7--7-7--8--8--8-8--5--5--5-5----------------------------|
D|--0--0--0-0--7--7--7-7--8--8--8-8--5--5--5-5----------------------------| x4


e|-------------------------------------------------------------------------|
B|-------------------------------------------------------------------------|
G|-------------------------------------------------------------------------|
D|--8-8--8-8--8-8--8-8--8--------------------------------------------------|
A|--6-6--6-6--6-6--6-6--6--------------------------------------------------|
D|-------------------------------------------------------------------------|


Repeat from Main riff


e|------------------------------------------------------------------------|
B|------------------------------------------------------------------------|
G|------------------------------------------------------------------------|
D|--5---0-1---8--8888-7-5-5553-2------------------------------------------|
A|--5---0-1---6--6666-5-3-5551-0------------------------------------------|
D|--5---0-1---------------------------------------------------------------| x8



e|-------------------------------------------------------------------------|
B|-------------------------------------------------------------------------|
G|-------------------------------------------------------------------------|
D|--8-8--8-8--8-8--8-8--8-------1---1---1---1---1--------------------------|
A|--6-6--6-6--6-6--6-6--6-------1---1---1---1---1--------------------------|
D|------------------------------1---1---1---1---1--------------------------|

 

 

0

Comments

+ Add a Comment

Log in to Guitar World directly or log in using Facebook

Forgot your username or password?
Click here for help.

  • Sign in with Twitter
Login with Facebook
Log in using Facebook to share comments and articles easily with your Facebook feed.