You are here

Tabs: Green Day "409 In Your Coffeemaker"

Tabs: Green Day

 

USER-SUBMITTED TAB

Below is a user-submitted guitar tablature for the song ""2=2=5" by Green Day, one of several user-submitted tabs to be found on GuitarWorld.com.

Please note that the tablature on this page is not an official tab.

For official tabs, be sure to visit alfred.com.

Artist: Green Day

Song: "409 in your Coffeemakers

Album: 1039/Smoothed Out Slappy Hours

 

 

 

b=bend

intro
|-----------|
|-----------|
|-555-------|
|-555-4-555-|
|-333-4-555-|
|-----2-333-|

Verse
|----------------|
|----------------|
|----------------|
|-555555--333333-|
|-555555--333333-|
|-333333--111111-|

Chorus
|---------------------------------------------|
|---------------------------------------------|
|-5555------5555------5555------555555-777777-|
|-5555-5555-5555-5555-5555-5555-555555-777777-|
|-3333-5555-3333-5555-3333-5555-333333-555555-|
|------3333------3333------3333---------------|

Bridge1
|---------|
|---------|
|---------|
|-55---33-|
|-55---33-|
|-33---11-|

Solo
|----8-8----8-8----8-8-----8-8-----8-8----8-8---8-8----8-8----8-8----8-8-|
|----8-8----8-8----8-8-----8-8-----8-8----8-8---8-8----8-8----8-8----8-8-|
|-10b----10b----10b----10b-----10b-----10b----10b---10b----10b----10b----|
|------------------------------------------------------------------------|
|------------------------------------------------------------------------|
|------------------------------------------------------------------------|


|----8-8---8-8---------------------------------------8-8----8-8---8-8-|
|----8-8---8-8--11b--11b--11b--10b--11b--11b--11b----8-8----8-8---8-8-|
|-10b---10b-----10b--10b--10b--10b--10b--10b--10b-10b----10b---10b----|
|---------------------------------------------------------------------|
|---------------------------------------------------------------------|
|---------------------------------------------------------------------|


|-11-8--------------|
|-------11-8-11-13~-|
|-------------------|
|-------------------|
|-------------------|
|-------------------|


Bridge2
|--------------------|
|--------------------|
|----4-5-4-----2-3-2-|
|-55-4-5-4-3-3-2-3-2-|
|-55-2-3-2-3-3-0-1-0-|
|-33-------1-1-------|

Outro
|--------------|
|--------------|
|----4-5-4-----|
|-55-4-5-4-3-3-|
|-55-2-3-2-3-3-|
|-33-------1-1-|


ORDER

Intro   x4
Verse   x8
Chorus  x2
Intro   x4
Verse   x8
Chorus  x2
Intro   x4
Bridge1 x6
Solo    x1
Chorus  x2
Intro   x4
Bridge2 x3
Outro   x1

 



Review: Seymour Duncan Palladium Gain Stage Pedal