You are here

Tabs: Damien Rice "The Animals Were Gone"

Tabs: Damien Rice

 

USER-SUBMITTED TAB

Below is a user-submitted guitar tablature for the song "The Animals Were Gone" by Damien Rice, one of several user-submitted tabs to be found on GuitarWorld.com.

Please note that the tablature on this page is not an official tab. For official tabs, be sure to visit http://www.halleonard.com/

Artist: Damien Rice

Song: "The Animals Were Gone"

Album: 9

 

 

Standard tuning
No capo

Intro/Verse
e-----------------------------------------------|
B----0------0-------1-------------1-----1-----3-|
G---0-0-—--0-0—----0-0-—---0--0--2-2----2-----0-|
D--0---0--0---0---2---2---2--0--2---2—2-----4---|
A----------------3-------3—-2—-0------0----5----|
E-3------3--------------------------------------|
  G              C             Am          D11
e---------------------------------------------------------------------|
B----0-------------0------0------1------1------0-----0------0-----0---|
G---0-0----0—-0---0-0----0-0----2-2----2-2----2-2---2-0--- 2-2---2-0--|
D—-0—--0—-0—-0---2---2—-2---2—-2---2—-2---2—-1---1-1---1--1---1-1---1-|
A-----------------------------0------0------2-----2------2-----2------|
E-3------3—-2---0------0----------------------------------------------|
  G             Em            Am            B7

Second guitar intro/verse (played by Lisa with capo on 7th)
e-----------------1----------1--3-----------------------1-----1------0-----0---
B----1-----1-----1-1---1—-1—-3—-5----------1-----1-----3-3---3-3---------------
G---0-0---0-0---2---2-2—-0—-2--4----0—-0—-2-2---2-2---2---2—2---2---1-1---1-1--
D—-2---2-2---2-3-----3—-2—-0—-0----2—-0—-2---2-2---2-0-----0-------0---0-0---0-
A-3-----3-------------------------3—-2—-0-----0--------------------------------
E-----------------------------------------------------------------0-----0------
  C            F     Dm       Em  C     Am           Dm           E7



Chorus
e----------------------------------------------------------
B----1------1------0------0------1------1------3---1---0---
G---2-2----2-2----0-0----0-0----2-2----2-2----0-0---0---0--
D—-2---2—-2---2--0---0—-0---0--2---2—-2---2--0---0—--0---0-
A-0-----0---------------------0-----0----------------------
E---------------3------3--------------------3------3-------
  Am            G             Am            G

 



See Metallica Perform “Battery” and “Hardwired” in Minneapolis in New Pro-Shot Footage