You are here

Tabs: Deck The Halls

Tabs: Deck The Halls

 

 

 

 

 

 

 

 

 

e|--------|--------|------------|-------|

B|-1------|--------|------------|-------|

G|---3-2-0|---0-2--|-0-2-3-0-2-0|-------|

D|-3------|-3-----3|---------3--|-3-2-3-|

A|--------|--------|-3----------|-3-3-3-|

E|--------|--------|------------|-------|


e|--------|--------|------------|-------|

B|-1------|--------|------------|-------|

G|---3-2-0|---0-2--|-0-2-3-0-2-0|-------|

D|-3------|-3-----3|---------3--|-3-2-3-|

A|--------|--------|-3----------|-3-3-3-|

E|--------|--------|------------|-------|


e|--------|--------|-----------1|-0-----|

B|--------|-----1--|-------0-1--|---3-1-|

G|-0-2-3-0|-2-3---0|-2-0-2---0-2|-0-----|

D|--------|-3------|-3----------|---3-2-|

A|-3------|--------|------------|-------|

E|--------|--------|------------|-------|


e|--------|--------|------------|--------||

B|-1------|--------|-3-3-3-3-1--|-------·||

G|---3-2-0|---0-2--|-----------3|-2-0----||

D|-3------|-3-----3|------------|-----3--||

A|--------|--------|-1-------0--|-3-3---·||

E|--------|--------|------------|-----1--||

 



Applying Modes to Improvised Guitar Solo Ideas, Part 1