You are here

Tabs: Lenny Kravitz "Are You Gonna Go My Way"

Tabs: Lenny Kravitz

 

USER-SUBMITTED TAB

Below is a user-submitted guitar tablature for the song "Are You Gonna Go My Way" by Lenny Kravitz, one of several user-submitted tabs to be found on GuitarWorld.com.

Please note that this is not an official Guitar World tab. For official tabs, visit the Alfred Music Publishing website.

Artist: Lenny Kravitz

Song: "Are You Gonna Go My Way"

Album: Are You Gonna Go My Way

 

 

 

Riff 1: ---- 2x ----

        |-------------------------------------------3----|

        |-------------------------------------------3----|

  G 1   |-2-^4-^2-p0-------------2-^4-^2-p0--------------|

        |------------2---0-2----------------2---0-2------|

        |------------------------------------------------|

        |--------------0-------0--------------0----------|

  

     Riff 2: ---- 6x ----

        |-------------------------------------------3----|

        |-------------------------------------------3----|

  G 1   |-2-^4-^2-p0-------------2-^4-^2-p0--------------|

        |------------2---0-2----------------2---0-2------|

        |------------------------------------------------|

        |--------------0-------0--------------0----------|

        |                                                |

        |                                                |

        |------------------------------------------------|   

        |-10^12^10p8-------------10^12^10p8--------------|   

  G 2   |------------9---7-9----------------9---7-9------|   

        |------------------------------------------------|   

        |------------------------------------------------|   

        |------------------------------------------------|


|---------------------------------------------------------

|    Riff 3: ---- 4x ----

|       |------------------------------------------------|

|       |------------------------------------------------|

|  G 1  |-2-^4-^2-p0-------------2-^4-^2-p0--------------|

|       |------------2---0-2----------------2---0-2------|

|       |------------------------------------------------|

|       |--------------0-------0--------------0-------0--|

|

|       I was born long ago

|       I am the chosen I'm the one

|       I have come to save the day

|       And I won't leave until I'm done

|---------------------------------------------------------

|              -- 3x --         ||

|       |-----------------------||-------------------|

|       |-----------------------||-------------------|

|  G 1  |-5-^7-^5-p3------------||--5---4---3--2--4--|

|       |------------5-0-3-5--0-||-------------------|

|       |-----------------------||-------------------|

|       |-----------------------||-------------------|

|       |                                            |

|       |      -- 3x --         ||                   |

|       |-----------------------||-------------------|

|       |-13^15^13p11-----------||-------------------|

|  G 2  |------------12--10-12--||--12--10--9--10-12-|

|       |-----------------------||-------------------|

|       |-----------------------||-------------------|

|       |-----------------------||-------------------|

|

|        So that's why you've got to try

|        You've got to breathe and have some fun

|---------------------------------------------------------

|    Riff 3    2x

|

|        Though I'm not paid I play this game

|        And I won't stop until I'm done

|---------------------------------------------------------

    

|    Chorus:

|       |----0-------------------0--------------------|

|       |----0-------------------0--------------------|

|       |----7-------------------6--------------------|

|       |----9-------------------7--------------------|

|       |---------------------------------------------|

|       |---------------------------------------------|

|              But what I really want to know is


|       |------------------------------------------|

|       |-9-9-7-9---------------------9-9--12-9----|

|       |-9-9-7-9---------------------9-9--12-9----|

|       |-9-9-7-9---------------------9-9--12-9----|

|       |------------------------------------------|

|       |------------------------------------------|

|                 Are you gonna go my way


|       |----0---------------0------------------------|

|       |----0---------------0------------------------|

|       |----7---------------6------------------------|

|       |----9---------------7------------------------|

|       |---------------------------------------------|

|       |---------------------------------------------|

|            And I got to    got to know

|

|---------------------------------------------------------

       Riff 1    1x


       Riff 2    3x

|---------------------------------------------------------

       Riff 3    4x    

        I don't know why we always cry

        This we must leave and get undone

        We must engage and rearrange

        And turn this planet back to one

|---------------------------------------------------------

    

               -- 3x ---------  ||

        |-----------------------||-------------------|

        |-----------------------||-------------------|

        |-5-^7-^5-p3------------||--5---4---3--2--4--|

        |------------5-0-3-5--0-||-------------------|

        |-----------------------||-------------------|

        |-----------------------||-------------------|

        |                                            |

        |      -- 3x --------   ||                   |

        |-----------------------||-------------------|

        |-13^15^13p11-----------||--13--12--11-10-12-|

        |------------12--10-12--||-------------------|

        |-----------------------||-------------------|

        |-----------------------||-------------------|

        |-----------------------||-------------------|


        So tell me why we got to die                  

        And kill each other one by one

|---------------------------------------------------------

       Riff 3    2x    


        We've got to love and rub-a-dub

        We've got to dance and be in love

|---------------------------------------------------------


     Chorus

|---------------------------------------------------------


     Solo:

              12x in total --             -- ending with:

        |---------------------------------||-----------------|

        |-9-----7-------7-------5-5-7-5---||-----------------|

        |-9-----7-------7-------6-6-7-6---||-----------------|

        |-9-----7-------7-------7-7-7-7---||-----0-1---------|

        |---------------------------------||---4-------------|

        |---------------------------------||-----------------|

        (repeat 4x by itself, then 8x under solo


|---------------------------------------------------------

        

      Outro:


        Riff 2    4x



        |-0----------0-------0-------------0-------|

        |-0----------0-------0-------------0-------|

        |-7----------6-------7-------------6-------|

        |-9----------7-------9-------------7-------|

        |------------------------------------------|

        |------------------------------------------|


|---------------------------------------------------------


        |------------------------------------------|

        |-9-9-7-9---------------------9-9--7--9----|

        |-9-9-7-9---------------------9-9--7--9----|

        |-9-9-7-9---------------------9-9--7--9----|

        |------------------------------------------|

        |------------------------------------------|

                  Are you gonna go my way



        |-0---------------0------------------------|

        |-8---------------7------------------------|

        |-7---------------6------------------------|

        |-9---------------8------------------------|

        |------------------------------------------|

        |------------------------------------------|

            'cause Baby I got to know



        


       

--  Solo --



E-|--------------------------------------------------------------------|

B-|--------------------------------------------------------------------|

G-|----------12h14p12vvvbbb--------------------------------------------|

D-|-14vvvv------------------14p12-12--14-------------------------------|

A-|--------------------------------------12b14--12---------------------|

E-|------------------------------------------------15---12-10-12-12sss-|

                  

E-|-----------------------------------------------------------------------|

B-|------------------------------------------------------17----15s17vvvvv-|

G-|-----------------------9h11b13----9h11p9----9h11sss16----16------------|

D-|------9---11p9----9h11-------------------11----------------------------|

A-|--s11----------11------------------------------------------------------|

E-|-----------------------------------------------------------------------|

                                         

E-|-----------------------------15--17b19vvv--17b19vv-17b19vv-17b19vvv-|

B-|-17vvvvvvvvv19p17vvvv17vv17vvv--------------------------------------|

G-|--------------------------------------------------------------------|

D-|--------------------------------------------------------------------|

A-|--------------------------------------------------------------------|

E-|--------------------------------------------------------------------|

                                                                               

E-|-17b19rb17p15-----------------------------|

B-|--------------17vv-----17vv-----17b20vvv--|

G-|------------------------------------------|

D-|------------------------------------------|

A-|------------------------------------------|

E-|------------------------------------------|

                                                                               

E-|-----------------------------------------------------------------|

B-|--17b20v--17b20v--17b20v--17b20v--17b20v--17b20rb17p15----15--17-|

G-|-------------------------------------------------------16--------|

D-|-----------------------------------------------------------------|

A-|-----------------------------------------------------------------|

E-|-----------------------------------------------------------------|


E-|---------------------------------12----------12----------------|

B-|------------------------------------12-15b17----15p12----------|

G-|-16p14p12----12h14p12-----14b16-----------------------14p12----|

D-|----------14----------14------------------------------------14-|

A-|---------------------------------------------------------------|

E-|---------------------------------------------------------------|

                                                                               

E-|-12----------12--------------------------|

B-|----12-15b17----15p12--------------15p12-|

G-|----------------------14p12--14b16-------|

D-|-----------------------------------------|

A-|-----------------------------------------|

E-|-----------------------------------------|


E-|-------12-------12--------15p12----12------------------------------|

B-|-15b17----15b17----15b17--------15------15p12----15--12------------|

G-|----------------------------------------------14---------14p12--14-|

D-|-------------------------------------------------------------------|

A-|-------------------------------------------------------------------|

E-|-------------------------------------------------------------------|

                                                 

E-|-----------------------------|

B-|-----------------------------|

G-|-12b14rb12p9---12vvvvvvvvvv--|

D-|-----------------------------|

A-|-----------------------------|

E-|-----------------------------|

 

 



See Cheap Trick Play “I Want You to Want Me” in Exclusive Live Clip