Tabs: O Christmas Tree - Guitar World

Tabs: O Christmas Tree

Author:
Publish date:
xmas-tree_1.jpg

E|-------0-0-0------2-4-4-4-----4-2-4-5---------2-0---------------|

B|-----0--------------------------------------4-------------------|

G|----------------------------------------------------------------|

D|----------------------------------------------------------------|

A|----------------------------------------------------------------|

E|----------------------------------------------------------------|

E|-------0-0-0------2-4-4-4-----4-2-4-5---------2-0---------------|

B|-----0--------------------------------------4-------------------|

G|----------------------------------------------------------------|

D|----------------------------------------------------------------|

A|----------------------------------------------------------------|

E|----------------------------------------------------------------|

E|-----7-7-4-9-----7-7-5-5-----5-5-2-7-----5-5-4-4----------------|

B|----------------------------------------------------------------|

G|----------------------------------------------------------------|

D|----------------------------------------------------------------|

A|----------------------------------------------------------------|

E|----------------------------------------------------------------|

E|-------0-0-0------2-4-4-4-----4-2-4-5---------2-0---------------|

B|-----0--------------------------------------4-------------------|

G|----------------------------------------------------------------|

D|----------------------------------------------------------------|

A|----------------------------------------------------------------|

E|----------------------------------------------------------------|