Tabs: Jimi Hendrix "Are You Experienced?"

avatar

Tabs: Jimi Hendrix "Are You Experienced?"

 

USER-SUBMITTED TAB

Below is a user-submitted guitar tablature for the song "Are You Experienced?" by Jimi Hendrix, one of several user-submitted tabs to be found on GuitarWorld.com.

Please note that this is not an official Guitar World tab. For official tabs, visit the Hal Leonard website.

Artist: Jimi Hendrix

Song: "Are You Experienced?"

Album: Are You Experienced

 

--------------------------------------------|
-3-2-3p2--0---2-----2---------2-----0h2---2-|
-2---2----0---2-----2---------2-----0h2---2-|
-2----------------------------------------2-|
-0--------------0-------2p0-----------------|
--------------------------------------------|

Verse:     (2x)
   A/C#                  Gsus                   A5
||-----------------------------------------------------------------------------|
||--------2------2-----------3---------3---------------------------------------|
||-----2--2------2-----------2----2----2-----------2---2-------2--2--2-------2-|
||-2---2------2------2h4-----0---------------------------2-----2-------------2-|
||-2h4--------4---------------------------------0-----------0-------------0----|
||------------------------3----------3-----0h2-------------------------3-------|

Chorus:
-X-X-X-X-X-X-X---X-X-X-X-X-X-X---X-X-X-X-X-X-X---X-X-X-X-X-X-X-
-X-X-X-X-X-X-X---X-X-X-X-X-X-X---X-X-X-X-X-X-X---X-X-X-X-X-X-X-
-X-X-X-X-X-X-X---X-X-X-X-X-X-X---X-X-X-X-X-X-X---X-X-X-X-X-X-X-
-X-X-X-X-X-X-X---X-X-X-X-X-X-X---X-X-X-X-X-X-X---X-X-X-X-X-X-X-
-X-X-X-X-X-X-X---X-X-X-X-X-X-X---X-X-X-X-X-X-X---X-X-X-X-X-X-X-
-X-X-X-X-X-X-X---X-X-X-X-X-X-X---X-X-X-X-X-X-X---X-X-X-X-X-X-X-

      F
------1--------------------------------------------------------------|
-0-0--1--1--1--1----1--1---------1-----1-------1--1-------------1----|
-0----2--2--2--0h2-----0h2-------0h2---2-2-----2--2----2--------2--2-|
------3--3-----3-------3---3--3--3-------3-----3--3----3---3----3--3-|
------3--------------------------------------------------------------|
------1-------------------------------------1--------1---1---1-------|

 A5
-------------------------------------------------------------------------------------|
-------------------------------------------------------------------------------------|
-2--------2-----2-----2--0h2----2-------2-2---2----2-------------2----2-2--2----2--2-|
-2--------2-----2-----2--0h2----2-------2-2---2----2-------2--2--2----2-2--2----2--2-|
-0--0--0--0--0-----0-----0----0----0--0------0----0---4p0--0--0----0--0----0--0------|
-------------------------------------------------------------------------------------|

Solo:

Guitar one plays these riffs
-5~--5---5-------------------5--5--|---------------------------------|
-5~----5-5---------5---------5--5--|-------------------------------0-|
-4~----------4--4-----4--4---------|---------0h2--0--0--0--0h2---2---|
-5~----------------------5---------|-0h2--2--0-------0--0--0h2-------|
-------------------------0---------|-0-------------------------------|
-----------------------------------|---------------------------------|

Guitar two
--------------------------------------------------------------|
--------------------------------5(7)~-------------------------|
-4(6)--(6)-(6)-(6)4--2h4(6)-4p2--------2--2--0--h2----2-------|
---------------------------------------------0--------2--2--2-|
---------------------------------------------------------0--0-|
--------------------------------------------------------------|

-----15----15h17p15--17(18)17-17--17-15t17--17(18)17p15----------15----15-------15-|
-/17----18----------------------------------------------17p15-17----17----17p15----|
-----------------------------------------------------------------------------------|
-----------------------------------------------------------------------------------|
-----------------------------------------------------------------------------------|
-----------------------------------------------------------------------------------|

-17-17p15-17-17p15-17-17\---8(9)8--------8---------------------------------------5-|
----------------------------------10~-10---10-10\5-5----------------5-5------5-8-5-|
-----------------------------------------------------7(9)7-5~---5h7-7---7(9)-------|
--------------------------------------------------------------7--------------------|
-----------------------------------------------------------------------------------|
-----------------------------------------------------------------------------------|

--------------------------10-------------------------------------------------------|
-5------/8/10p8--8/10--13-10-----------10-13(15)--13(15)-13(15)13---13(15)13p10~---|
---7(9)-----------------------12(14)12---------------------------------------------|
-----------------------------------------------------------------------------------|
-----------------------------------------------------------------------------------|
-----------------------------------------------------------------------------------|

----------------------------------12\10----8-------------------------------5--|
----10-13(15)13--13(16)13p10~--10-------10---10--10\-----------5h8p5---5-8----|
-12------------------------------------------------------5h7-7-------7--------|
-----------------------------------------------------7~-----------------------|
------------------------------------------------------------------------------|
------------------------------------------------------------------------------|

--------5-----------------------------------------------------------------|
-8(10)8-5--5-------/5~--5\2-2(3)2(3)2(3)2(3)-2p0--------------------------|
-------------7(9)7-------------------------------2p0-2--2/4\2---2h4p2-4p2-|
--------------------------------------------------------------4-----------|
--------------------------------------------------------------------------|
--------------------------------------------------------------------------|

-2------------2---------------------------------------------------------------|
---2------2-5----------------------------------------------------------5(7)5~-|
-----4(5)-------4(6)~~~---2/4\2---2h4p2-4\2---2h4p2h4p2--4h5p4--5~-5\4--------|
--------------------------------------------4---------------------------------|
------------------------------------------------------------------------------|
------------------------------------------------------------------------------|

Outro:
------5------------------------------------------------|
-5(7)---5--2h5p2---------------------------------------|
-----------------2-4-2--2-0-2------2-------------------|
------------------------0-0-2--2---2---------2--2------|
-------------------------------0----------0----------0-|
--------------------------------------3-3----2--2p0----|

 


 

 

0

Comments

+ Add a Comment

Log in to Guitar World directly or log in using Facebook

Forgot your username or password?
Click here for help.

  • Sign in with Twitter
Login with Facebook
Log in using Facebook to share comments and articles easily with your Facebook feed.